  0
SECTION
  2
HEADER
  9
$ACADVER
  1
AC1024
  9
$ACADMAINTVER
 70
   226
  9
$DWGCODEPAGE
  3
ANSI_1252
  9
$LASTSAVEDBY
  1
rperez
  9
$INSBASE
 10
0.0
 20
0.0
 30
0.0
  9
$EXTMIN
 10
17.75
 20
-12.25
 30
0.0
  9
$EXTMAX
 10
34.75
 20
-1.25
 30
0.0
  9
$LIMMIN
 10
0.0
 20
0.0
  9
$LIMMAX
 10
12.0
 20
9.0
  9
$ORTHOMODE
 70
     0
  9
$REGENMODE
 70
     1
  9
$FILLMODE
 70
     1
  9
$QTEXTMODE
 70
     0
  9
$MIRRTEXT
 70
     0
  9
$LTSCALE
 40
1.0
  9
$ATTMODE
 70
     1
  9
$TEXTSIZE
 40
0.125
  9
$TRACEWID
 40
0.05
  9
$TEXTSTYLE
  7
ROMANS
  9
$CLAYER
  8
LP_Detail
  9
$CELTYPE
  6
ByLayer
  9
$CECOLOR
 62
   256
  9
$CELTSCALE
 40
1.0
  9
$DISPSILH
 70
     0
  9
$DIMSCALE
 40
1.0
  9
$DIMASZ
 40
0.18
  9
$DIMEXO
 40
0.0625
  9
$DIMDLI
 40
0.38
  9
$DIMRND
 40
0.0
  9
$DIMDLE
 40
0.0
  9
$DIMEXE
 40
0.125
  9
$DIMTP
 40
0.0
  9
$DIMTM
 40
0.0
  9
$DIMTXT
 40
0.125
  9
$DIMCEN
 40
0.09
  9
$DIMTSZ
 40
0.0
  9
$DIMTOL
 70
     0
  9
$DIMLIM
 70
     0
  9
$DIMTIH
 70
     1
  9
$DIMTOH
 70
     1
  9
$DIMSE1
 70
     0
  9
$DIMSE2
 70
     0
  9
$DIMTAD
 70
     0
  9
$DIMZIN
 70
     0
  9
$DIMBLK
  1

  9
$DIMASO
 70
     1
  9
$DIMSHO
 70
     1
  9
$DIMPOST
  1

  9
$DIMAPOST
  1

  9
$DIMALT
 70
     0
  9
$DIMALTD
 70
     2
  9
$DIMALTF
 40
25.4
  9
$DIMLFAC
 40
1.0
  9
$DIMTOFL
 70
     0
  9
$DIMTVP
 40
0.0
  9
$DIMTIX
 70
     0
  9
$DIMSOXD
 70
     0
  9
$DIMSAH
 70
     0
  9
$DIMBLK1
  1

  9
$DIMBLK2
  1

  9
$DIMSTYLE
  2
Standard
  9
$DIMCLRD
 70
   256
  9
$DIMCLRE
 70
   256
  9
$DIMCLRT
 70
   256
  9
$DIMTFAC
 40
1.0
  9
$DIMGAP
 40
0.09
  9
$DIMJUST
 70
     0
  9
$DIMSD1
 70
     0
  9
$DIMSD2
 70
     0
  9
$DIMTOLJ
 70
     1
  9
$DIMTZIN
 70
     0
  9
$DIMALTZ
 70
     0
  9
$DIMALTTZ
 70
     0
  9
$DIMUPT
 70
     0
  9
$DIMDEC
 70
     4
  9
$DIMTDEC
 70
     4
  9
$DIMALTU
 70
     2
  9
$DIMALTTD
 70
     2
  9
$DIMTXSTY
  7
Arial
  9
$DIMAUNIT
 70
     0
  9
$DIMADEC
 70
     0
  9
$DIMALTRND
 40
0.0
  9
$DIMAZIN
 70
     0
  9
$DIMDSEP
 70
    46
  9
$DIMATFIT
 70
     3
  9
$DIMFRAC
 70
     0
  9
$DIMLDRBLK
  1

  9
$DIMLUNIT
 70
     2
  9
$DIMLWD
 70
    -1
  9
$DIMLWE
 70
    -1
  9
$DIMTMOVE
 70
     2
  9
$DIMFXL
 40
1.0
  9
$DIMFXLON
 70
     0
  9
$DIMJOGANG
 40
0.7853981633974483
  9
$DIMTFILL
 70
     0
  9
$DIMTFILLCLR
 70
     0
  9
$DIMARCSYM
 70
     0
  9
$DIMLTYPE
  6

  9
$DIMLTEX1
  6

  9
$DIMLTEX2
  6

  9
$DIMTXTDIRECTION
 70
     0
  9
$LUNITS
 70
     2
  9
$LUPREC
 70
     6
  9
$SKETCHINC
 40
0.1
  9
$FILLETRAD
 40
0.0
  9
$AUNITS
 70
     0
  9
$AUPREC
 70
     0
  9
$MENU
  1
ACAD
  9
$ELEVATION
 40
0.0
  9
$PELEVATION
 40
0.0
  9
$THICKNESS
 40
0.0
  9
$LIMCHECK
 70
     0
  9
$CHAMFERA
 40
0.0
  9
$CHAMFERB
 40
0.0
  9
$CHAMFERC
 40
0.0
  9
$CHAMFERD
 40
0.0
  9
$SKPOLY
 70
     0
  9
$TDCREATE
 40
2449623.426759259
  9
$TDUCREATE
 40
2449623.676764236
  9
$TDUPDATE
 40
2457925.320474537
  9
$TDUUPDATE
 40
2457925.570474537
  9
$TDINDWG
 40
7.3790962731
  9
$TDUSRTIMER
 40
7.3790962731
  9
$USRTIMER
 70
     1
  9
$ANGBASE
 50
0.0
  9
$ANGDIR
 70
     0
  9
$PDMODE
 70
     4
  9
$PDSIZE
 40
0.05
  9
$PLINEWID
 40
0.025
  9
$SPLFRAME
 70
     0
  9
$SPLINETYPE
 70
     6
  9
$SPLINESEGS
 70
     8
  9
$HANDSEED
  5
246
  9
$SURFTAB1
 70
     6
  9
$SURFTAB2
 70
     6
  9
$SURFTYPE
 70
     6
  9
$SURFU
 70
     6
  9
$SURFV
 70
     6
  9
$UCSBASE
  2

  9
$UCSNAME
  2

  9
$UCSORG
 10
0.0
 20
0.0
 30
0.0
  9
$UCSXDIR
 10
1.0
 20
0.0
 30
0.0
  9
$UCSYDIR
 10
0.0
 20
1.0
 30
0.0
  9
$UCSORTHOREF
  2

  9
$UCSORTHOVIEW
 70
     0
  9
$UCSORGTOP
 10
0.0
 20
0.0
 30
0.0
  9
$UCSORGBOTTOM
 10
0.0
 20
0.0
 30
0.0
  9
$UCSORGLEFT
 10
0.0
 20
0.0
 30
0.0
  9
$UCSORGRIGHT
 10
0.0
 20
0.0
 30
0.0
  9
$UCSORGFRONT
 10
0.0
 20
0.0
 30
0.0
  9
$UCSORGBACK
 10
0.0
 20
0.0
 30
0.0
  9
$PUCSBASE
  2

  9
$PUCSNAME
  2

  9
$PUCSORG
 10
0.0
 20
0.0
 30
0.0
  9
$PUCSXDIR
 10
1.0
 20
0.0
 30
0.0
  9
$PUCSYDIR
 10
0.0
 20
1.0
 30
0.0
  9
$PUCSORTHOREF
  2

  9
$PUCSORTHOVIEW
 70
     0
  9
$PUCSORGTOP
 10
0.0
 20
0.0
 30
0.0
  9
$PUCSORGBOTTOM
 10
0.0
 20
0.0
 30
0.0
  9
$PUCSORGLEFT
 10
0.0
 20
0.0
 30
0.0
  9
$PUCSORGRIGHT
 10
0.0
 20
0.0
 30
0.0
  9
$PUCSORGFRONT
 10
0.0
 20
0.0
 30
0.0
  9
$PUCSORGBACK
 10
0.0
 20
0.0
 30
0.0
  9
$USERI1
 70
     0
  9
$USERI2
 70
     0
  9
$USERI3
 70
     0
  9
$USERI4
 70
     0
  9
$USERI5
 70
     0
  9
$USERR1
 40
0.0
  9
$USERR2
 40
0.0
  9
$USERR3
 40
0.0
  9
$USERR4
 40
0.0
  9
$USERR5
 40
0.0
  9
$WORLDVIEW
 70
     1
  9
$SHADEDGE
 70
     3
  9
$SHADEDIF
 70
    70
  9
$TILEMODE
 70
     1
  9
$MAXACTVP
 70
    16
  9
$PINSBASE
 10
0.0
 20
0.0
 30
0.0
  9
$PLIMCHECK
 70
     0
  9
$PEXTMIN
 10
0.0
 20
0.0
 30
0.0
  9
$PEXTMAX
 10
17.0
 20
11.0
 30
0.0
  9
$PLIMMIN
 10
0.0000004808264455
 20
0.0000003606784997
  9
$PLIMMAX
 10
17.00000000023466
 20
11.00000012038261
  9
$UNITMODE
 70
     0
  9
$VISRETAIN
 70
     0
  9
$PLINEGEN
 70
     1
  9
$PSLTSCALE
 70
     1
  9
$TREEDEPTH
 70
  3020
  9
$CMLSTYLE
  2
DUCT_PIPE
  9
$CMLJUST
 70
     1
  9
$CMLSCALE
 40
0.100000000000002
  9
$PROXYGRAPHICS
 70
     1
  9
$MEASUREMENT
 70
     0
  9
$CELWEIGHT
370
    -1
  9
$ENDCAPS
280
     0
  9
$JOINSTYLE
280
     0
  9
$LWDISPLAY
290
     0
  9
$INSUNITS
 70
     0
  9
$HYPERLINKBASE
  1

  9
$STYLESHEET
  1

  9
$XEDIT
290
     1
  9
$CEPSNTYPE
380
     0
  9
$PSTYLEMODE
290
     1
  9
$FINGERPRINTGUID
  2
{9BB06F81-674B-E349-A0C6-3A8D8FDBC2ED}
  9
$VERSIONGUID
  2
{7EB32AEC-B8AA-0048-969F-CB6811D0C765}
  9
$EXTNAMES
290
     1
  9
$PSVPSCALE
 40
0.0
  9
$OLESTARTUP
290
     1
  9
$SORTENTS
280
    51
  9
$INDEXCTL
280
     0
  9
$HIDETEXT
280
     1
  9
$XCLIPFRAME
280
     0
  9
$HALOGAP
280
     0
  9
$OBSCOLOR
 70
   257
  9
$OBSLTYPE
280
     0
  9
$INTERSECTIONDISPLAY
280
     0
  9
$INTERSECTIONCOLOR
 70
   257
  9
$DIMASSOC
280
     2
  9
$PROJECTNAME
  1

  9
$CAMERADISPLAY
290
     0
  9
$LENSLENGTH
 40
50.0
  9
$CAMERAHEIGHT
 40
0.0
  9
$STEPSPERSEC
 40
2.0
  9
$STEPSIZE
 40
6.0
  9
$3DDWFPREC
 40
2.0
  9
$PSOLWIDTH
 40
0.25
  9
$PSOLHEIGHT
 40
4.0
  9
$LOFTANG1
 40
1.570796326794896
  9
$LOFTANG2
 40
1.570796326794896
  9
$LOFTMAG1
 40
0.0
  9
$LOFTMAG2
 40
0.0
  9
$LOFTPARAM
 70
     7
  9
$LOFTNORMALS
280
     1
  9
$LATITUDE
 40
37.795
  9
$LONGITUDE
 40
-122.394
  9
$NORTHDIRECTION
 40
0.0
  9
$TIMEZONE
 70
 -8000
  9
$LIGHTGLYPHDISPLAY
280
     1
  9
$TILEMODELIGHTSYNCH
280
     1
  9
$CMATERIAL
347
160
  9
$SOLIDHIST
280
     0
  9
$SHOWHIST
280
     1
  9
$DWFFRAME
280
     2
  9
$DGNFRAME
280
     0
  9
$REALWORLDSCALE
290
     1
  9
$INTERFERECOLOR
 62
     1
  9
$INTERFEREOBJVS
345
175
  9
$INTERFEREVPVS
346
176
  9
$CSHADOW
280
     0
  9
$SHADOWPLANELOCATION
 40
0.0
  0
ENDSEC
  0
SECTION
  2
CLASSES
  0
CLASS
  1
ACDBDICTIONARYWDFLT
  2
AcDbDictionaryWithDefault
  3
ObjectDBX Classes
 90
        0
 91
        1
280
     0
281
     0
  0
CLASS
  1
DICTIONARYVAR
  2
AcDbDictionaryVar
  3
ObjectDBX Classes
 90
        0
 91
        9
280
     0
281
     0
  0
CLASS
  1
PLOTSETTINGS
  2
AcDbPlotSettings
  3
ObjectDBX Classes
 90
        0
 91
        0
280
     0
281
     0
  0
CLASS
  1
MATERIAL
  2
AcDbMaterial
  3
ObjectDBX Classes
 90
     1153
 91
        3
280
     0
281
     0
  0
CLASS
  1
VISUALSTYLE
  2
AcDbVisualStyle
  3
ObjectDBX Classes
 90
     4095
 91
       24
280
     0
281
     0
  0
CLASS
  1
TABLESTYLE
  2
AcDbTableStyle
  3
ObjectDBX Classes
 90
     4095
 91
        1
280
     0
281
     0
  0
CLASS
  1
SCALE
  2
AcDbScale
  3
ObjectDBX Classes
 90
     1153
 91
       33
280
     0
281
     0
  0
CLASS
  1
MLEADERSTYLE
  2
AcDbMLeaderStyle
  3
ACDB_MLEADERSTYLE_CLASS
 90
     4095
 91
        2
280
     0
281
     0
  0
CLASS
  1
EXACXREFPANELOBJECT
  2
ExAcXREFPanelObject
  3
EXAC_ESW
 90
     1025
 91
        1
280
     0
281
     0
  0
CLASS
  1
NPOCOLLECTION
  2
AcDbImpNonPersistentObjectsCollection
  3
ObjectDBX Classes
 90
     1153
 91
        1
280
     0
281
     0
  0
CLASS
  1
LAYER_INDEX
  2
AcDbLayerIndex
  3
ObjectDBX Classes
 90
        0
 91
        0
280
     0
281
     0
  0
CLASS
  1
SPATIAL_INDEX
  2
AcDbSpatialIndex
  3
ObjectDBX Classes
 90
        0
 91
        0
280
     0
281
     0
  0
CLASS
  1
IDBUFFER
  2
AcDbIdBuffer
  3
ObjectDBX Classes
 90
        0
 91
        0
280
     0
281
     0
  0
CLASS
  1
CELLSTYLEMAP
  2
AcDbCellStyleMap
  3
ObjectDBX Classes
 90
     1152
 91
        1
280
     0
281
     0
  0
CLASS
  1
SORTENTSTABLE
  2
AcDbSortentsTable
  3
ObjectDBX Classes
 90
        0
 91
        7
280
     0
281
     0
  0
CLASS
  1
AEC_REFEDIT_STATUS_TRACKER
  2
AecDbRefEditStatusTracker
  3
AecArchBase50|Product Desc: Autodesk Architectural Desktop 2007 |Company: Autodesk,Inc. |WEB Address: www.autodesk.com
 90
      129
 91
        0
280
     1
281
     0
  0
CLASS
  1
ACDBSECTIONVIEWSTYLE
  2
AcDbSectionViewStyle
  3
ObjectDBX Classes
 90
     1025
 91
        1
280
     0
281
     0
  0
CLASS
  1
ACDBDETAILVIEWSTYLE
  2
AcDbDetailViewStyle
  3
ObjectDBX Classes
 90
     1025
 91
        1
280
     0
281
     0
  0
CLASS
  1
ACAD_TABLE
  2
AcDbTable
  3
ObjectDBX Classes
 90
     1025
 91
        0
280
     0
281
     1
  0
CLASS
  1
FIELD
  2
AcDbField
  3
ObjectDBX Classes
 90
     1152
 91
        6
280
     0
281
     0
  0
CLASS
  1
FIELDLIST
  2
AcDbFieldList
  3
ObjectDBX Classes
 90
     1152
 91
        1
280
     0
281
     0
  0
CLASS
  1
DATATABLE
  2
AcDbDataTable
  3
ObjectDBX Classes
 90
        0
 91
        0
280
     0
281
     0
  0
CLASS
  1
ACAD_EVALUATION_GRAPH
  2
AcDbEvalGraph
  3
ObjectDBX Classes
 90
     1153
 91
        1
280
     0
281
     0
  0
CLASS
  1
ACAECUSTOBJ
  2
AcAeEditorObj
  3
AcAeEditorObj
 90
     1024
 91
        0
280
     0
281
     0
  0
CLASS
  1
ACDB_DYNAMICBLOCKPURGEPREVENTER_VERSION
  2
AcDbDynamicBlockPurgePreventer
  3
ObjectDBX Classes
 90
     1153
 91
        1
280
     0
281
     0
  0
CLASS
  1
BLOCKPOINTPARAMETER
  2
AcDbBlockPointParameter
  3
ObjectDBX Classes
 90
     1153
 91
        0
280
     0
281
     0
  0
CLASS
  1
BLOCKMOVEACTION
  2
AcDbBlockMoveAction
  3
ObjectDBX Classes
 90
     1153
 91
        0
280
     0
281
     0
  0
CLASS
  1
BLOCKLINEARPARAMETER
  2
AcDbBlockLinearParameter
  3
ObjectDBX Classes
 90
     1153
 91
        1
280
     0
281
     0
  0
CLASS
  1
BLOCKLINEARGRIP
  2
AcDbBlockLinearGrip
  3
ObjectDBX Classes
 90
     1153
 91
        1
280
     0
281
     0
  0
CLASS
  1
BLOCKGRIPLOCATIONCOMPONENT
  2
AcDbBlockGripExpr
  3
ObjectDBX Classes
 90
     1153
 91
        2
280
     0
281
     0
  0
CLASS
  1
BLOCKSTRETCHACTION
  2
AcDbBlockStretchAction
  3
ObjectDBX Classes
 90
     1153
 91
        1
280
     0
281
     0
  0
CLASS
  1
BLOCKPROPERTIESTABLE
  2
AcDbBlockPropertiesTable
  3
ObjectDBX Classes
 90
     1153
 91
        0
280
     0
281
     0
  0
CLASS
  1
BLOCKPROPERTIESTABLEGRIP
  2
AcDbBlockPropertiesTableGrip
  3
ObjectDBX Classes
 90
     1153
 91
        0
280
     0
281
     0
  0
CLASS
  1
ACDB_DYNAMICBLOCKPROXYNODE
  2
AcDbDynamicBlockProxyNode
  3
ObjectDBX Classes
 90
     1153
 91
        0
280
     0
281
     0
  0
CLASS
  1
ACDB_BLOCKREPRESENTATION_DATA
  2
AcDbBlockRepresentationData
  3
ObjectDBX Classes
 90
     1153
 91
        1
280
     0
281
     0
  0
CLASS
  1
BLOCKPOLARPARAMETER
  2
AcDbBlockPolarParameter
  3
ObjectDBX Classes
 90
     1153
 91
        0
280
     0
281
     0
  0
CLASS
  1
BLOCKPOLARGRIP
  2
AcDbBlockPolarGrip
  3
ObjectDBX Classes
 90
     1153
 91
        0
280
     0
281
     0
  0
CLASS
  1
BLOCKPOLARSTRETCHACTION
  2
AcDbBlockPolarStretchAction
  3
ObjectDBX Classes
 90
     1153
 91
        0
280
     0
281
     0
  0
CLASS
  1
BLOCKVISIBILITYPARAMETER
  2
AcDbBlockVisibilityParameter
  3
ObjectDBX Classes
 90
     1153
 91
        0
280
     0
281
     0
  0
CLASS
  1
BLOCKVISIBILITYGRIP
  2
AcDbBlockVisibilityGrip
  3
ObjectDBX Classes
 90
     1153
 91
        0
280
     0
281
     0
  0
CLASS
  1
BLOCKFLIPPARAMETER
  2
AcDbBlockFlipParameter
  3
ObjectDBX Classes
 90
     1153
 91
        0
280
     0
281
     0
  0
CLASS
  1
BLOCKFLIPGRIP
  2
AcDbBlockFlipGrip
  3
ObjectDBX Classes
 90
     1153
 91
        0
280
     0
281
     0
  0
CLASS
  1
BLOCKFLIPACTION
  2
AcDbBlockFlipAction
  3
ObjectDBX Classes
 90
     1153
 91
        0
280
     0
281
     0
  0
CLASS
  1
POINTPARAMETERENTITY
  2
AcDbBlockPointParameterEntity
  3
ObjectDBX Classes
 90
     1025
 91
        0
280
     0
281
     1
  0
CLASS
  1
ACAEEEMGROBJ
  2
AcAeEEMgrObj
  3
AcAeEEMgrObj
 90
     1024
 91
        0
280
     0
281
     0
  0
CLASS
  1
MOVEACTIONENTITY
  2
AcDbBlockMoveActionEntity
  3
ObjectDBX Classes
 90
     1025
 91
        0
280
     0
281
     1
  0
CLASS
  1
LINEARPARAMETERENTITY
  2
AcDbBlockLinearParameterEntity
  3
ObjectDBX Classes
 90
     1025
 91
        0
280
     0
281
     1
  0
CLASS
  1
LINEARGRIPENTITY
  2
AcDbBlockLinearGripEntity
  3
ObjectDBX Classes
 90
     1025
 91
        0
280
     0
281
     1
  0
CLASS
  1
STRETCHACTIONENTITY
  2
AcDbBlockStretchActionEntity
  3
ObjectDBX Classes
 90
     1025
 91
        0
280
     0
281
     1
  0
CLASS
  1
BLOCKPROPERTIESTABLEENTITY
  2
AcDbBlockPropertiesTableEntity
  3
ObjectDBX Classes
 90
     1025
 91
        0
280
     0
281
     1
  0
CLASS
  1
BLOCKPROPERTIESTABLEGRIPENTITY
  2
AcDbBlockPropertiesTableGripEntity
  3
ObjectDBX Classes
 90
     1025
 91
        0
280
     0
281
     1
  0
CLASS
  1
MULTILEADER
  2
AcDbMLeader
  3
ACDB_MLEADER_CLASS
 90
     1025
 91
        7
280
     0
281
     1
  0
CLASS
  1
ACSH_REVOLVE_CLASS
  2
AcDbShRevolve
  3
ObjectDBX Classes
 90
     1153
 91
        0
280
     0
281
     0
  0
CLASS
  1
ACSH_HISTORY_CLASS
  2
AcDbShHistory
  3
ObjectDBX Classes
 90
     1153
 91
        0
280
     0
281
     0
  0
CLASS
  1
IMAGEDEF
  2
AcDbRasterImageDef
  3
ISM
 90
        0
 91
        0
280
     0
281
     0
  0
CLASS
  1
RASTERVARIABLES
  2
AcDbRasterVariables
  3
ISM
 90
        0
 91
        0
280
     0
281
     0
  0
CLASS
  1
IMAGEDEF_REACTOR
  2
AcDbRasterImageDefReactor
  3
ISM
 90
        1
 91
        0
280
     0
281
     0
  0
CLASS
  1
IMAGE
  2
AcDbRasterImage
  3
ISM
 90
     2175
 91
        0
280
     0
281
     1
  0
CLASS
  1
ACARRAYJIGENTITY
  2
AcArrayJigEntity
  3
ACAD_ARRAY
 90
      129
 91
        0
280
     1
281
     1
  0
CLASS
  1
ACDBASSOCNETWORK
  2
AcDbAssocNetwork
  3
ObjectDBX Classes
 90
     1025
 91
        0
280
     0
281
     0
  0
CLASS
  1
ACDBASSOCACTION
  2
AcDbAssocAction
  3
ObjectDBX Classes
 90
     1025
 91
        0
280
     0
281
     0
  0
CLASS
  1
ACDBASSOCARRAYACTIONBODY
  2
AcDbAssocArrayActionBody
  3
ObjectDBX Classes
 90
     1025
 91
        0
280
     0
281
     0
  0
CLASS
  1
ACDBASSOCVERTEXACTIONPARAM
  2
AcDbAssocVertexActionParam
  3
ObjectDBX Classes
 90
     1025
 91
        0
280
     0
281
     0
  0
CLASS
  1
ACDBASSOCDEPENDENCY
  2
AcDbAssocDependency
  3
ObjectDBX Classes
 90
     1025
 91
        0
280
     0
281
     0
  0
CLASS
  1
ACDBASSOCARRAYRECTANGULARPARAMETERS
  2
AcDbAssocArrayRectangularParameters
  3
ObjectDBX Classes
 90
     1025
 91
        0
280
     0
281
     0
  0
CLASS
  1
SOLID_BACKGROUND
  2
AcDbSolidBackground
  3
SCENEOE
 90
     4095
 91
        0
280
     0
281
     0
  0
CLASS
  1
ACDBASSOCPERSSUBENTMANAGER
  2
AcDbAssocPersSubentManager
  3
ObjectDBX Classes
 90
     1024
 91
        0
280
     0
281
     0
  0
CLASS
  1
ACDBPERSSUBENTMANAGER
  2
AcDbPersSubentManager
  3
AcDbPersSubentManager
 90
     1024
 91
        0
280
     0
281
     0
  0
CLASS
  1
DIMASSOC
  2
AcDbDimAssoc
  3
"AcDbDimAssoc|Product Desc:     AcDim ARX App For Dimension|Company:          Autodesk, Inc.|WEB Address:      www.autodesk.com"
 90
        0
 91
        0
280
     0
281
     0
  0
CLASS
  1
ACSH_EXTRUSION_CLASS
  2
AcDbShExtrusion
  3
ObjectDBX Classes
 90
     1153
 91
        0
280
     0
281
     0
  0
CLASS
  1
PDFDEFINITION
  2
AcDbPdfDefinition
  3
ObjectDBX Classes
 90
     1153
 91
        0
280
     0
281
     0
  0
CLASS
  1
PDFUNDERLAY
  2
AcDbPdfReference
  3
ObjectDBX Classes
 90
     4095
 91
        0
280
     0
281
     1
  0
ENDSEC
  0
SECTION
  2
TABLES
  0
TABLE
  2
VPORT
  5
155
102
{ACAD_XDICTIONARY
360
158
102
}
330
0
100
AcDbSymbolTable
 70
     1
  0
VPORT
  5
156
330
155
100
AcDbSymbolTableRecord
100
AcDbViewportTableRecord
  2
*Active
 70
     0
 10
0.0
 20
0.0
 11
1.0
 21
1.0
 12
26.11486862211823
 22
-6.786035022892685
 13
0.0
 23
0.0
 14
0.14
 24
0.14
 15
0.14
 25
0.14
 16
0.0
 26
0.0
 36
1.0
 17
0.0
 27
0.0
 37
0.0
 40
11.0537459231915
 41
2.085574572127139
 42
50.0
 43
0.0
 44
0.0
 50
0.0
 51
0.0
 71
     0
 72
  1000
 73
     1
 74
     0
 75
     0
 76
     0
 77
     0
 78
     2
281
     0
 65
     1
110
0.0
120
0.0
130
0.0
111
1.0
121
0.0
131
0.0
112
0.0
122
1.0
132
0.0
 79
     0
146
0.0
348
13E
 60
     3
 61
     5
292
     1
282
     1
141
0.0
142
0.0
 63
   250
421
  3355443
1001
ACAD_NAV_VCDISPLAY
1070
     3
  0
ENDTAB
  0
TABLE
  2
LTYPE
  5
150
330
0
100
AcDbSymbolTable
 70
     1
  0
LTYPE
  5
151
330
150
100
AcDbSymbolTableRecord
100
AcDbLinetypeTableRecord
  2
ByBlock
 70
     0
  3

 72
    65
 73
     0
 40
0.0
  0
LTYPE
  5
152
330
150
100
AcDbSymbolTableRecord
100
AcDbLinetypeTableRecord
  2
ByLayer
 70
     0
  3

 72
    65
 73
     0
 40
0.0
  0
LTYPE
  5
18
330
150
100
AcDbSymbolTableRecord
100
AcDbLinetypeTableRecord
  2
CONTINUOUS
 70
     0
  3
Solid line
 72
    65
 73
     0
 40
0.0
  0
ENDTAB
  0
TABLE
  2
LAYER
  5
149
102
{ACAD_XDICTIONARY
360
14A
102
}
330
0
100
AcDbSymbolTable
 70
     8
  0
LAYER
  5
6
330
149
100
AcDbSymbolTableRecord
100
AcDbLayerTableRecord
  2
0
 70
     0
 62
     7
  6
CONTINUOUS
370
    -3
390
7
347
E
1001
IDT_Size-PipeType
1005
13
  0
LAYER
  5
B1
330
149
100
AcDbSymbolTableRecord
100
AcDbLayerTableRecord
  2
LP_Detail
 70
     0
 62
   142
  6
CONTINUOUS
370
    -3
390
7
347
E
  0
LAYER
  5
1F
330
149
100
AcDbSymbolTableRecord
100
AcDbLayerTableRecord
  2
LP_TitleBlock
 70
     0
 62
    30
  6
CONTINUOUS
370
    -3
390
7
347
E
  0
LAYER
  5
1B
330
149
100
AcDbSymbolTableRecord
100
AcDbLayerTableRecord
  2
LP_Text
 70
     0
 62
     7
  6
CONTINUOUS
370
    -3
390
7
347
E
  0
LAYER
  5
114
330
149
100
AcDbSymbolTableRecord
100
AcDbLayerTableRecord
  2
LP_Mleader
 70
     0
 62
     1
  6
CONTINUOUS
370
    -3
390
7
347
E
  0
LAYER
  5
88
330
149
100
AcDbSymbolTableRecord
100
AcDbLayerTableRecord
  2
LP_Hatch
 70
     0
 62
     8
  6
CONTINUOUS
370
    -3
390
7
347
E
  0
LAYER
  5
145
330
149
100
AcDbSymbolTableRecord
100
AcDbLayerTableRecord
  2
viewport
 70
     0
 62
     3
  6
CONTINUOUS
290
     0
370
    -3
390
7
347
E
  0
LAYER
  5
2E
330
149
100
AcDbSymbolTableRecord
100
AcDbLayerTableRecord
  2
defpoints
 70
     0
 62
     7
  6
CONTINUOUS
290
     0
370
    -3
390
7
347
E
1001
AcAecLayerStandard
1000

1000

1001
AcCmTransparency
1071
        0
  0
ENDTAB
  0
TABLE
  2
STYLE
  5
14D
330
0
100
AcDbSymbolTable
 70
     4
  0
STYLE
  5
14E
330
14D
100
AcDbSymbolTableRecord
100
AcDbTextStyleTableRecord
  2
STANDARD
 70
     0
 40
0.0
 41
1.0
 50
0.0
 71
     0
 42
0.2
  3
txt
  4

  0
STYLE
  5
1C
330
14D
100
AcDbSymbolTableRecord
100
AcDbTextStyleTableRecord
  2
ROMANS
 70
     0
 40
0.0
 41
1.0
 50
0.0
 71
     0
 42
0.125
  3
C:\program files\autodesk\autocad 2017\fonts\Romans.shx
  4

  0
STYLE
  5
2B
330
14D
100
AcDbSymbolTableRecord
100
AcDbTextStyleTableRecord
  2
Arial
 70
     0
 40
0.0
 41
1.0
 50
0.0
 71
     0
 42
0.125
  3
arial.ttf
  4

1001
ACAD
1000
Arial
1071
       34
  0
STYLE
  5
32
330
14D
100
AcDbSymbolTableRecord
100
AcDbTextStyleTableRecord
  2
ArialNarrow
 70
     0
 40
0.0
 41
0.8
 50
0.0
 71
     0
 42
0.125
  3
arial.ttf
  4

1001
ACAD
1000
Arial
1071
       34
  0
ENDTAB
  0
TABLE
  2
VIEW
  5
153
330
0
100
AcDbSymbolTable
 70
     0
  0
ENDTAB
  0
TABLE
  2
UCS
  5
154
330
0
100
AcDbSymbolTable
 70
     0
  0
ENDTAB
  0
TABLE
  2
APPID
  5
159
330
0
100
AcDbSymbolTable
 70
    19
  0
APPID
  5
2C
330
159
100
AcDbSymbolTableRecord
100
AcDbRegAppTableRecord
  2
ACAD
 70
     0
  0
APPID
  5
11F
330
159
100
AcDbSymbolTableRecord
100
AcDbRegAppTableRecord
  2
ACAD_MLEADERVER
 70
     0
  0
APPID
  5
138
330
159
100
AcDbSymbolTableRecord
100
AcDbRegAppTableRecord
  2
ACAD_PSEXT
 70
     0
  0
APPID
  5
A
330
159
100
AcDbSymbolTableRecord
100
AcDbRegAppTableRecord
  2
BBSI_PltSel
 70
     0
  0
APPID
  5
D
330
159
100
AcDbSymbolTableRecord
100
AcDbRegAppTableRecord
  2
BBSI_Plots
 70
     0
  0
APPID
  5
B
330
159
100
AcDbSymbolTableRecord
100
AcDbRegAppTableRecord
  2
BBSI_Bookmarks
 70
     0
  0
APPID
  5
C
330
159
100
AcDbSymbolTableRecord
100
AcDbRegAppTableRecord
  2
BBSI_BookmarksEx
 70
     0
  0
APPID
  5
2F
330
159
100
AcDbSymbolTableRecord
100
AcDbRegAppTableRecord
  2
AcAecLayerStandard
 70
     0
  0
APPID
  5
157
330
159
100
AcDbSymbolTableRecord
100
AcDbRegAppTableRecord
  2
ACAD_NAV_VCDISPLAY
 70
     0
  0
APPID
  5
49
330
159
100
AcDbSymbolTableRecord
100
AcDbRegAppTableRecord
  2
ACAUTHENVIRON
 70
     0
  0
APPID
  5
5A
330
159
100
AcDbSymbolTableRecord
100
AcDbRegAppTableRecord
  2
AcDbDynamicBlockTrueName
 70
     0
  0
APPID
  5
34
330
159
100
AcDbSymbolTableRecord
100
AcDbRegAppTableRecord
  2
AcDbDynamicBlockGUID
 70
     0
  0
APPID
  5
30
330
159
100
AcDbSymbolTableRecord
100
AcDbRegAppTableRecord
  2
AcCmTransparency
 70
     0
  0
APPID
  5
52
330
159
100
AcDbSymbolTableRecord
100
AcDbRegAppTableRecord
  2
AcDbBlockRepETag
 70
     0
  0
APPID
  5
6B
330
159
100
AcDbSymbolTableRecord
100
AcDbRegAppTableRecord
  2
AcDbBlockRepBTag
 70
     0
  0
APPID
  5
137
330
159
100
AcDbSymbolTableRecord
100
AcDbRegAppTableRecord
  2
PLOTTRANSPARENCY
 70
     0
  0
APPID
  5
1D
330
159
100
AcDbSymbolTableRecord
100
AcDbRegAppTableRecord
  2
RJP
 70
     0
  0
APPID
  5
3C
330
159
100
AcDbSymbolTableRecord
100
AcDbRegAppTableRecord
  2
PE_URL
 70
     0
  0
APPID
  5
19
330
159
100
AcDbSymbolTableRecord
100
AcDbRegAppTableRecord
  2
IDT_Size-PipeType
 70
     0
  0
ENDTAB
  0
TABLE
  2
DIMSTYLE
  5
15A
330
0
100
AcDbSymbolTable
 70
     1
100
AcDbDimStyleTable
 71
     1
340
15B
  0
DIMSTYLE
105
15B
330
15A
100
AcDbSymbolTableRecord
100
AcDbDimStyleTableRecord
  2
Standard
 70
     0
340
14E
  0
ENDTAB
  0
TABLE
  2
BLOCK_RECORD
  5
1
330
0
100
AcDbSymbolTable
 70
     9
  0
BLOCK_RECORD
  5
2
102
{ACAD_XDICTIONARY
360
3
102
}
330
1
100
AcDbSymbolTableRecord
100
AcDbBlockTableRecord
  2
*Model_Space
340
135
 70
     0
280
     1
281
     0
  0
BLOCK_RECORD
  5
139
330
1
100
AcDbSymbolTableRecord
100
AcDbBlockTableRecord
  2
*Paper_Space
340
147
 70
     0
280
     1
281
     0
  0
BLOCK_RECORD
  5
20
102
{ACAD_XDICTIONARY
360
21
102
}
330
1
100
AcDbSymbolTableRecord
100
AcDbBlockTableRecord
  2
titleblock
340
0
102
{BLKREFS
331
1E
102
}
 70
     0
280
     1
281
     0
1001
AcDbDynamicBlockGUID
1000
{852E2BAC-929D-364B-A625-B0F8ED86253F}
  0
BLOCK_RECORD
  5
45
102
{ACAD_XDICTIONARY
360
46
102
}
330
1
100
AcDbSymbolTableRecord
100
AcDbBlockTableRecord
  2
dtitle
340
0
 70
     0
280
     0
281
     1
1001
AcDbBlockRepETag
1070
     1
1071
       13
1001
AcDbDynamicBlockTrueName
1000
dtitle
1001
AcDbDynamicBlockGUID
1000
{DBF5EEDE-06F3-A94B-B4A1-A0BA0285A8D9}
  0
BLOCK_RECORD
  5
F3
102
{ACAD_XDICTIONARY
360
F4
102
}
330
1
100
AcDbSymbolTableRecord
100
AcDbBlockTableRecord
  2
Shrub3
340
0
310
2800000020000000200000000100080000000000000400000000000000000000000000000000000000000000000080000080000000808000800000008000800080800000C0C0C000C0DCC000F0CAA6000020400000206000002080000020A0000020C0000020E00000400000004020000040400000406000004080000040A0
310
000040C0000040E00000600000006020000060400000606000006080000060A0000060C0000060E00000800000008020000080400000806000008080000080A0000080C0000080E00000A0000000A0200000A0400000A0600000A0800000A0A00000A0C00000A0E00000C0000000C0200000C0400000C0600000C0800000C0
310
A00000C0C00000C0E00000E0000000E0200000E0400000E0600000E0800000E0A00000E0C00000E0E00040000000400020004000400040006000400080004000A0004000C0004000E00040200000402020004020400040206000402080004020A0004020C0004020E000404000004040200040404000404060004040800040
310
40A0004040C0004040E00040600000406020004060400040606000406080004060A0004060C0004060E00040800000408020004080400040806000408080004080A0004080C0004080E00040A0000040A0200040A0400040A0600040A0800040A0A00040A0C00040A0E00040C0000040C0200040C0400040C0600040C08000
310
40C0A00040C0C00040C0E00040E0000040E0200040E0400040E0600040E0800040E0A00040E0C00040E0E00080000000800020008000400080006000800080008000A0008000C0008000E00080200000802020008020400080206000802080008020A0008020C0008020E00080400000804020008040400080406000804080
310
008040A0008040C0008040E00080600000806020008060400080606000806080008060A0008060C0008060E00080800000808020008080400080806000808080008080A0008080C0008080E00080A0000080A0200080A0400080A0600080A0800080A0A00080A0C00080A0E00080C0000080C0200080C0400080C0600080C0
310
800080C0A00080C0C00080C0E00080E0000080E0200080E0400080E0600080E0800080E0A00080E0C00080E0E000C0000000C0002000C0004000C0006000C0008000C000A000C000C000C000E000C0200000C0202000C0204000C0206000C0208000C020A000C020C000C020E000C0400000C0402000C0404000C0406000C0
310
408000C040A000C040C000C040E000C0600000C0602000C0604000C0606000C0608000C060A000C060C000C060E000C0800000C0802000C0804000C0806000C0808000C080A000C080C000C080E000C0A00000C0A02000C0A04000C0A06000C0A08000C0A0A000C0A0C000C0A0E000C0C00000C0C02000C0C04000C0C06000
310
C0C08000C0C0A000F0FBFF00A4A0A000808080000000FF0000FF000000FFFF00FF000000FF00FF00FFFF0000FFFFFF000000000000000000000000000000000000000000000000000000000000000000000000000000000000000000000000FFFFFF000000000000000000000000000000000000000000000000FFFFFFFFFF
310
000000FFFF0000000000000000000000000000000000000000FFFF00000000000000000000FFFFFF00000000000000000000000000000000FF000000000000000000000000000000FFFF00000000000000000000000000FF000000000000000000000000000000000000FF0000000000000000000000FF0000000000000000
310
000000000000000000000000FF000000000000000000FF00000000000000000000000000000000000000000000FF0000000000000000FF00000000000000000000000000000000000000000000FF00000000000000FF00000000000000000000000000FFFFFF0000000000000000FF000000000000FF000000000000000000
310
000000FFFFFFFFFF0000000000000000FF00000000FF00000000000000000000000000FFFFFFFFFFFF00000000000000FF00000000FF00000000000000000000000000FFFFFFFFFF0000000000000000FF00000000FF000000000000FFFFFF00000000FFFFFFFFFF0000000000000000FF000000FF000000000000FFFFFFFF
310
FF00000000FFFFFF000000000000000000FF000000FF000000000000FFFFFFFFFFFF00000000000000000000000000000000FF0000FF000000000000FFFFFFFFFFFF00000000000000000000000000000000FF0000FF000000000000FFFFFFFFFF0000000000000000000000000000000000FF000000FF000000000000FFFF
310
FFFF00000000FFFFFF000000000000000000FF00000000FF00000000000000000000000000FFFFFFFFFF0000000000000000FF00000000FF00000000000000000000000000FFFFFFFFFF0000000000000000FF0000000000FF000000000000000000000000FFFFFFFFFF0000000000000000FF0000000000FF000000000000
310
000000000000FFFFFFFFFF00000000000000FF00000000000000FF000000000000000000000000FFFF0000000000000000FF0000000000000000FF00000000000000000000000000000000000000000000FF000000000000000000FF0000000000000000000000000000000000000000FF0000000000000000000000FF0000
310
00000000000000000000000000000000FF00000000000000000000000000FF000000000000000000000000000000FFFF000000000000000000000000000000FFFF0000000000000000000000FFFF00000000000000000000000000000000000000FFFFFFFFFF000000FFFFFF00000000000000000000000000000000000000
310
00000000000000FFFFFF00000000000000000000000000000000000000000000000000000000000000000000000000000000000000000000
102
{BLKREFS
331
F2
331
101
102
}
 70
     2
280
     1
281
     0
1001
AcDbDynamicBlockGUID
1000
{D13D4983-3E13-4E12-8E40-47124A853B46}
  0
BLOCK_RECORD
  5
D0
102
{ACAD_XDICTIONARY
360
D1
102
}
330
1
100
AcDbSymbolTableRecord
100
AcDbBlockTableRecord
  2
Shrub2
340
0
310
2800000020000000200000000100080000000000000400000000000000000000000000000000000000000000000080000080000000808000800000008000800080800000C0C0C000C0DCC000F0CAA6000020400000206000002080000020A0000020C0000020E00000400000004020000040400000406000004080000040A0
310
000040C0000040E00000600000006020000060400000606000006080000060A0000060C0000060E00000800000008020000080400000806000008080000080A0000080C0000080E00000A0000000A0200000A0400000A0600000A0800000A0A00000A0C00000A0E00000C0000000C0200000C0400000C0600000C0800000C0
310
A00000C0C00000C0E00000E0000000E0200000E0400000E0600000E0800000E0A00000E0C00000E0E00040000000400020004000400040006000400080004000A0004000C0004000E00040200000402020004020400040206000402080004020A0004020C0004020E000404000004040200040404000404060004040800040
310
40A0004040C0004040E00040600000406020004060400040606000406080004060A0004060C0004060E00040800000408020004080400040806000408080004080A0004080C0004080E00040A0000040A0200040A0400040A0600040A0800040A0A00040A0C00040A0E00040C0000040C0200040C0400040C0600040C08000
310
40C0A00040C0C00040C0E00040E0000040E0200040E0400040E0600040E0800040E0A00040E0C00040E0E00080000000800020008000400080006000800080008000A0008000C0008000E00080200000802020008020400080206000802080008020A0008020C0008020E00080400000804020008040400080406000804080
310
008040A0008040C0008040E00080600000806020008060400080606000806080008060A0008060C0008060E00080800000808020008080400080806000808080008080A0008080C0008080E00080A0000080A0200080A0400080A0600080A0800080A0A00080A0C00080A0E00080C0000080C0200080C0400080C0600080C0
310
800080C0A00080C0C00080C0E00080E0000080E0200080E0400080E0600080E0800080E0A00080E0C00080E0E000C0000000C0002000C0004000C0006000C0008000C000A000C000C000C000E000C0200000C0202000C0204000C0206000C0208000C020A000C020C000C020E000C0400000C0402000C0404000C0406000C0
310
408000C040A000C040C000C040E000C0600000C0602000C0604000C0606000C0608000C060A000C060C000C060E000C0800000C0802000C0804000C0806000C0808000C080A000C080C000C080E000C0A00000C0A02000C0A04000C0A06000C0A08000C0A0A000C0A0C000C0A0E000C0C00000C0C02000C0C04000C0C06000
310
C0C08000C0C0A000F0FBFF00A4A0A000808080000000FF0000FF000000FFFF00FF000000FF00FF00FFFF0000FFFFFF00000000000000000000000000000000000000000000000000000000000000000000000000000000000000000000000000FF000000000000000000000000000000000000000000000000000000000000
310
00FF00000000000000000000000000000000000000000000000000000000000000FF00000000000000000000000000000000000000000000000000000000000000FF00000000000000000000000000000000000000000000000000000000000000FF000000000000000000000000000000000000000000FF00000000000000
310
0000FF0000000000000000FF00000000000000000000000000FF0000000000000000FF00000000000000FF000000000000000000000000000000FF00000000000000FF000000000000FF0000000000000000000000000000000000FF000000000000FF0000000000FF00000000000000000000000000000000000000FF0000
310
000000FF00000000FF000000000000000000000000000000000000000000FF00000000FF000000FF0000000000000000000000000000000000000000000000FF000000FF0000FF00000000000000000000000000000000000000000000000000FF0000FF00FF00000000000000000000000000000000000000000000000000
310
0000FF00FFFF0000000000000000000000000000000000000000000000000000000000FFFF00000000000000000000000000000000FFFFFFFFFFFFFFFFFFFFFFFFFFFFFFFFFFFFFFFFFFFFFFFFFFFFFFFFFFFF000000000000000000000000000000FF00FFFF00000000000000000000000000000000000000000000000000
310
0000FF0000FF00FF00000000000000000000000000000000000000000000000000FF000000FF0000FF0000000000000000000000000000000000000000000000FF00000000FF000000FF000000000000000000000000000000000000000000FF0000000000FF00000000FF00000000000000000000000000000000000000FF
310
000000000000FF0000000000FF0000000000000000000000000000000000FF00000000000000FF000000000000FF000000000000000000000000000000FF0000000000000000FF00000000000000FF00000000000000000000000000FF000000000000000000FF0000000000000000FF000000000000000000000000000000
310
00000000000000FF00000000000000000000000000000000000000000000000000000000000000FF00000000000000000000000000000000000000000000000000000000000000FF00000000000000000000000000000000000000000000000000000000000000FF0000000000000000000000000000000000000000000000
310
0000000000000000FF0000000000000000000000000000000000000000000000000000000000000000000000000000000000000000000000
102
{BLKREFS
331
CF
331
F0
331
F1
102
}
 70
     2
280
     1
281
     0
1001
AcDbDynamicBlockGUID
1000
{412623E0-777A-4EFF-9DB0-DF0D3B5EA24D}
  0
BLOCK_RECORD
  5
117
102
{ACAD_XDICTIONARY
360
118
102
}
330
1
100
AcDbSymbolTableRecord
100
AcDbBlockTableRecord
  2
_CustomLeaderRJP
340
0
310
2800000020000000200000000100080000000000000400000000000000000000000000000000000000000000000080000080000000808000800000008000800080800000C0C0C000C0DCC000F0CAA6000020400000206000002080000020A0000020C0000020E00000400000004020000040400000406000004080000040A0
310
000040C0000040E00000600000006020000060400000606000006080000060A0000060C0000060E00000800000008020000080400000806000008080000080A0000080C0000080E00000A0000000A0200000A0400000A0600000A0800000A0A00000A0C00000A0E00000C0000000C0200000C0400000C0600000C0800000C0
310
A00000C0C00000C0E00000E0000000E0200000E0400000E0600000E0800000E0A00000E0C00000E0E00040000000400020004000400040006000400080004000A0004000C0004000E00040200000402020004020400040206000402080004020A0004020C0004020E000404000004040200040404000404060004040800040
310
40A0004040C0004040E00040600000406020004060400040606000406080004060A0004060C0004060E00040800000408020004080400040806000408080004080A0004080C0004080E00040A0000040A0200040A0400040A0600040A0800040A0A00040A0C00040A0E00040C0000040C0200040C0400040C0600040C08000
310
40C0A00040C0C00040C0E00040E0000040E0200040E0400040E0600040E0800040E0A00040E0C00040E0E00080000000800020008000400080006000800080008000A0008000C0008000E00080200000802020008020400080206000802080008020A0008020C0008020E00080400000804020008040400080406000804080
310
008040A0008040C0008040E00080600000806020008060400080606000806080008060A0008060C0008060E00080800000808020008080400080806000808080008080A0008080C0008080E00080A0000080A0200080A0400080A0600080A0800080A0A00080A0C00080A0E00080C0000080C0200080C0400080C0600080C0
310
800080C0A00080C0C00080C0E00080E0000080E0200080E0400080E0600080E0800080E0A00080E0C00080E0E000C0000000C0002000C0004000C0006000C0008000C000A000C000C000C000E000C0200000C0202000C0204000C0206000C0208000C020A000C020C000C020E000C0400000C0402000C0404000C0406000C0
310
408000C040A000C040C000C040E000C0600000C0602000C0604000C0606000C0608000C060A000C060C000C060E000C0800000C0802000C0804000C0806000C0808000C080A000C080C000C080E000C0A00000C0A02000C0A04000C0A06000C0A08000C0A0A000C0A0C000C0A0E000C0C00000C0C02000C0C04000C0C06000
310
C0C08000C0C0A000F0FBFF00A4A0A000808080000000FF0000FF000000FFFF00FF000000FF00FF00FFFF0000FFFFFF0000000000000000000000000000000000000000000000000000000000000000000000000000000000000000000000000000000000000000000000000000000000000000000000000000000000000000
310
000000000000000000000000000000000000000000000000000000000000000000000000000000000000000000000000000000000000000000000000000000000000000000000000000000000000000000000000000000000000000000000000000000FFFFFFFFFFFF00000000000000000000000000000000000000000000
310
00FFFFFFFFFFFFFFFFFFFFFF0000000000000000000000000000000000000000FFFFFFFFFFFFFFFFFFFFFFFFFF000000000000000000000000000000000000FFFFFFFFFF0000000000FFFFFFFFFFFF000000000000000000000000000000FFFFFFFF000000000000000000FFFFFFFF0000000000000000000000000000FFFF
310
FFFF0000000000000000000000FFFF00FF00000000000000000000000000FFFFFF00000000000000000000000000FFFFFFFF0000000000000000000000FFFFFFFF0000000000000000000000000000FFFFFF000000000000000000FFFFFFFFFF000000000000000000000000000000FFFFFF000000000000FFFFFF0000FFFF
310
FF000000000000000000000000000000FFFFFF00000000FFFF0000000000FFFFFF00000000000000000000000000000000FFFFFF00FFFF00000000000000FFFFFF00000000000000000000000000000000FFFFFF000000FFFFFFFF000000FFFFFF000000000000000000000000000000FFFFFF0000000000000000FFFFFFFF
310
FFFF000000000000000000000000000000FFFFFF0000000000000000000000FFFFFFFF0000000000000000000000000000FFFFFF000000000000000000000000FFFFFF00000000000000000000000000FFFFFFFF000000000000000000000000FFFFFFFF0000000000000000000000FFFFFFFF000000000000000000000000
310
0000FFFFFFFF000000000000000000FFFFFFFF00000000000000000000000000000000FFFFFFFFFF0000000000FFFFFFFFFFFF0000000000000000000000000000000000FFFFFFFFFFFFFFFFFFFFFFFFFF0000000000000000000000000000000000000000FFFFFFFFFFFFFFFFFFFFFF000000000000000000000000000000
310
000000000000000000FFFFFFFFFFFF00000000000000000000000000000000000000000000000000000000000000000000000000000000000000000000000000000000000000000000000000000000000000000000000000000000000000000000000000000000000000000000000000000000000000000000000000000000
310
0000000000000000000000000000000000000000000000000000000000000000000000000000000000000000000000000000000000000000
 70
     0
280
     1
281
     0
1001
AcDbDynamicBlockGUID
1000
{F3E28DDD-CAD6-4FFE-8E6A-6C8924CA59E8}
  0
BLOCK_RECORD
  5
D9
102
{ACAD_XDICTIONARY
360
DA
102
}
330
1
100
AcDbSymbolTableRecord
100
AcDbBlockTableRecord
  2
Pine
340
0
310
2800000020000000200000000100080000000000000400000000000000000000000000000000000000000000000080000080000000808000800000008000800080800000C0C0C000C0DCC000F0CAA6000020400000206000002080000020A0000020C0000020E00000400000004020000040400000406000004080000040A0
310
000040C0000040E00000600000006020000060400000606000006080000060A0000060C0000060E00000800000008020000080400000806000008080000080A0000080C0000080E00000A0000000A0200000A0400000A0600000A0800000A0A00000A0C00000A0E00000C0000000C0200000C0400000C0600000C0800000C0
310
A00000C0C00000C0E00000E0000000E0200000E0400000E0600000E0800000E0A00000E0C00000E0E00040000000400020004000400040006000400080004000A0004000C0004000E00040200000402020004020400040206000402080004020A0004020C0004020E000404000004040200040404000404060004040800040
310
40A0004040C0004040E00040600000406020004060400040606000406080004060A0004060C0004060E00040800000408020004080400040806000408080004080A0004080C0004080E00040A0000040A0200040A0400040A0600040A0800040A0A00040A0C00040A0E00040C0000040C0200040C0400040C0600040C08000
310
40C0A00040C0C00040C0E00040E0000040E0200040E0400040E0600040E0800040E0A00040E0C00040E0E00080000000800020008000400080006000800080008000A0008000C0008000E00080200000802020008020400080206000802080008020A0008020C0008020E00080400000804020008040400080406000804080
310
008040A0008040C0008040E00080600000806020008060400080606000806080008060A0008060C0008060E00080800000808020008080400080806000808080008080A0008080C0008080E00080A0000080A0200080A0400080A0600080A0800080A0A00080A0C00080A0E00080C0000080C0200080C0400080C0600080C0
310
800080C0A00080C0C00080C0E00080E0000080E0200080E0400080E0600080E0800080E0A00080E0C00080E0E000C0000000C0002000C0004000C0006000C0008000C000A000C000C000C000E000C0200000C0202000C0204000C0206000C0208000C020A000C020C000C020E000C0400000C0402000C0404000C0406000C0
310
408000C040A000C040C000C040E000C0600000C0602000C0604000C0606000C0608000C060A000C060C000C060E000C0800000C0802000C0804000C0806000C0808000C080A000C080C000C080E000C0A00000C0A02000C0A04000C0A06000C0A08000C0A0A000C0A0C000C0A0E000C0C00000C0C02000C0C04000C0C06000
310
C0C08000C0C0A000F0FBFF00A4A0A000808080000000FF0000FF000000FFFF00FF000000FF00FF00FFFF0000FFFFFF00000000000000000000000000000000000000000000000000000000000000000000000000000000000000000000FB00000000000000000000000000000000000000000000000000000000000000FB00
310
000000000000FB0000000000000000000000000000000000000000000000FBFBFFFFFFFFFF00FB000000000000000000000000000000000000000000FFFF00FB0000000000FBFF00000000000000000000000000000000000000FBFF000000FB0000000000FB00FBFF000000000000000000000000000000FFFF00FB000000
310
FB00000000FB00FB0000FF0000000000000000000000FB0000FF0000FB000000FBFB000000FB00FB000000FF00FB000000000000000000FBFB00000000FB0000FBFB000000FBFB00000000FBFB00000000000000000000FF00FB00000000FB0000FB0000FB00FB000000FB00FB000000000000000000FBFB0000FBFB0000FB
310
0000FB0000FBFB000000FBFBFB00FF0000000000000000FF00FBFB0000FB0000FB00FB0000FB0000FBFBFB000000FF00000000000000FFFF000000FBFBFBFBFB00FBFB00FBFB00FBFB0000000000FBFBFB00000000FBFBFBFB0000000000FBFBFB00FBFBFB00FBFB0000FBFBFBFB00FF000000000000FF0000FBFBFBFBFBFB
310
FBFBFBFBFBFBFBFBFBFBFBFBFBFBFBFBFB000000000000FF000000000000000000FBFBFBFBFBFBFBFBFBFB0000000000FF000000000000FF000000000000000000000000FBFB00000000000000000000FF000000000000FF000000000000000000000000FB00FBFB0000000000000000FF000000000000FFFF000000000000
310
0000000000FB00FB00FB00000000000000FF000000000000FFFF0000000000000000000000FB0000FB00FB000000000000FF00000000000000FF0000000000000000000000FB000000FB00FB00000000FF0000000000000000FF0000000000000000000000FB00000000FB00FB000000FF000000000000000000FF00000000
310
000000000000FB0000000000FB00FBFBFF0000000000000000000000FF000000000000000000FB0000000000FB000000FB000000000000000000000000FF0000000000000000FB000000000000FB00FF00FB0000000000000000000000FF0000000000000000FB00000000000000FB000000000000000000000000000000FF
310
FF000000000000FB000000000000FF000000000000000000000000000000000000FFFFFF000000FB000000FFFFFF00000000000000000000000000000000000000000000FFFFFFFFFFFFFF00000000000000000000000000000000000000000000000000000000FB0000000000000000000000000000000000000000000000
310
0000000000000000FB0000000000000000000000000000000000000000000000000000000000000000000000000000000000000000000000
102
{BLKREFS
331
D8
102
}
 70
     1
280
     1
281
     1
1001
AcDbDynamicBlockGUID
1000
{19CC9532-EE26-4FE8-B02E-9ECDE8C3F3C8}
  0
BLOCK_RECORD
  5
B2
102
{ACAD_XDICTIONARY
360
B3
102
}
330
1
100
AcDbSymbolTableRecord
100
AcDbBlockTableRecord
  2
Juniper
340
0
310
2800000020000000200000000100080000000000000400000000000000000000000000000000000000000000000080000080000000808000800000008000800080800000C0C0C000C0DCC000F0CAA6000020400000206000002080000020A0000020C0000020E00000400000004020000040400000406000004080000040A0
310
000040C0000040E00000600000006020000060400000606000006080000060A0000060C0000060E00000800000008020000080400000806000008080000080A0000080C0000080E00000A0000000A0200000A0400000A0600000A0800000A0A00000A0C00000A0E00000C0000000C0200000C0400000C0600000C0800000C0
310
A00000C0C00000C0E00000E0000000E0200000E0400000E0600000E0800000E0A00000E0C00000E0E00040000000400020004000400040006000400080004000A0004000C0004000E00040200000402020004020400040206000402080004020A0004020C0004020E000404000004040200040404000404060004040800040
310
40A0004040C0004040E00040600000406020004060400040606000406080004060A0004060C0004060E00040800000408020004080400040806000408080004080A0004080C0004080E00040A0000040A0200040A0400040A0600040A0800040A0A00040A0C00040A0E00040C0000040C0200040C0400040C0600040C08000
310
40C0A00040C0C00040C0E00040E0000040E0200040E0400040E0600040E0800040E0A00040E0C00040E0E00080000000800020008000400080006000800080008000A0008000C0008000E00080200000802020008020400080206000802080008020A0008020C0008020E00080400000804020008040400080406000804080
310
008040A0008040C0008040E00080600000806020008060400080606000806080008060A0008060C0008060E00080800000808020008080400080806000808080008080A0008080C0008080E00080A0000080A0200080A0400080A0600080A0800080A0A00080A0C00080A0E00080C0000080C0200080C0400080C0600080C0
310
800080C0A00080C0C00080C0E00080E0000080E0200080E0400080E0600080E0800080E0A00080E0C00080E0E000C0000000C0002000C0004000C0006000C0008000C000A000C000C000C000E000C0200000C0202000C0204000C0206000C0208000C020A000C020C000C020E000C0400000C0402000C0404000C0406000C0
310
408000C040A000C040C000C040E000C0600000C0602000C0604000C0606000C0608000C060A000C060C000C060E000C0800000C0802000C0804000C0806000C0808000C080A000C080C000C080E000C0A00000C0A02000C0A04000C0A06000C0A08000C0A0A000C0A0C000C0A0E000C0C00000C0C02000C0C04000C0C06000
310
C0C08000C0C0A000F0FBFF00A4A0A000808080000000FF0000FF000000FFFF00FF000000FF00FF00FFFF0000FFFFFF00000000000000000000000000000000000000000000000000000000000000000000000000000000000000000000000000FF000000000000000000000000000000000000000000000000000000FFFFFF
310
FFFF000000000000000000000000000000000000000000000000FF0000FFFFFFFFFF00000000FF00000000000000000000000000000000000000FFFFFFFFFF0000FFFF0000FFFF00000000000000000000000000000000000000FF00000000FF0000FFF9FFFFFFFFFFFF000000000000000000000000FF0000FFF900000000
310
FF000000F9000000FF00FFFFFF00000000000000000000FFFFFFFF00F9000000FF0000F900000000FF0000FFFF000000000000000000FFFF00000000F9000000FF0000F9000000FF000000FF00000000000000000000FFFF0000000000F9FFFFFFFFFFFFFFFFFFFF000000FF0000000000000000000000FFFFFF000000F900
310
0000FF00F90000FF0000000000FFFFFFFF00000000000000FF0000FF000000F90000FFF90000FF00000000FFFF00FFFF00000000000000FFFFFF0000FF0000F900FFFFF9FF00FF0000FFFF000000F9F90000000000FFFF000000FFFFFFFFFF00F900000000FF00FFFF0000F9F9F900FFFF0000000000F9F9F9F9F9000000FF
310
FF000000FF0000FF00F9F9F9000000FF0000000000FFFFFF00000000F9F9F9F9F9000000FF0000F9F9000000000000FF00000000000000FF0000000000000000FF00FFFFFFFF00FFFFFFFFFF000000FF00000000000000FF00000000000000F9F9000000FF0000FFFF000000FFFFFFFFFFFFFF000000FFFFFF0000F9F9F9F9
310
0000FF00000000F90000FFFFFFFF0000FFFF0000000000FF00FFF9F900000000000000FFFFF9FF00F90000000000FFFFFF00000000000000000000FF000000000000FFFFFFF900FF00F9000000000000FFFF000000000000000000FF000000000000FF00FFF900FF0000F9000000000000FFFF0000000000000000FF000000
310
0000FFFFFF00F90000FF0000F9000000FFFFFF0000000000000000FF0000000000FFFF00FF00F90000FF000000F9FFFFFF000000000000000000FFFFFF000000FF00FF00FF00F9000000FF00FFFF0000FFFF00000000000000000000FF000000FFFF0000FF0000F90000FF00FF000000000000000000000000000000FFFFFF
310
FFFFFF00FF000000F9000000FFFF00000000000000000000000000000000FF0000FFFFFFFFFF0000F900FFFFFFFF00000000000000000000000000000000000000FF000000FFFFFFF9FFFF0000FF0000000000000000000000000000000000000000000000FFFFFFF900FF0000000000000000000000000000000000000000
310
000000000000FF0000FF00000000000000000000000000000000000000000000000000000000000000000000000000000000000000000000
102
{BLKREFS
331
B0
102
}
 70
     1
280
     1
281
     1
1001
AcDbDynamicBlockGUID
1000
{97F2BCC2-9A37-4D31-B390-F334E039F953}
  0
BLOCK_RECORD
  5
5F
102
{ACAD_XDICTIONARY
360
60
102
}
330
1
100
AcDbSymbolTableRecord
100
AcDbBlockTableRecord
  2
*U7
340
0
102
{BLKREFS
331
41
102
}
 70
     0
280
     0
281
     1
1001
AcDbBlockRepBTag
1070
     1
1005
45
  0
BLOCK_RECORD
  5
72
102
{ACAD_XDICTIONARY
360
73
102
}
330
1
100
AcDbSymbolTableRecord
100
AcDbBlockTableRecord
  2
PC_FlowChart
340
0
310
28000000200000002000000001002000000000000010000001000000010000000000000000000000D8D23BC2000000FF000000FF000000FF000000FF000000FF000000FF000000FF000000FF000000FF000000FF000000FF000000FF000000FF000000FF000000FF000000FF000000FF000000FF000000FF000000FF000000
310
FF000000FF000000FF000000FF000000FF000000FF000000FF000000FF000000FF000000FF000000FF000000FF000000FF000000FF000000FF000000FF000000FF000000FF000000FF000000FF000000FF000000FF000000FF000000FF000000FF000000FF000000FF000000FF000000FF000000FF000000FF000000FF0000
310
00FF000000FF000000FF000000FF000000FF000000FF000000FF000000FF000000FF000000FF000000FF000000FF000000FF000000FF000000FF000000FF000000FF000000FF000000FF000000FF000000FF000000FF000000FF000000FF000000FF000000FF000000FF000000FF000000FF000000FF000000FF000000FF00
310
0000FF000000FF000000FF000000FF000000FF000000FF000000FF000000FF000000FF000000FF000000FF000000FF000000FF000000FF000000FF000000FF000000FF000000FF000000FF000000FF000000FF000000FF000000FF000000FF000000FF000000FF000000FF000000FF000000FF000000FF000000FF000000FF
310
000000FF000000FF000000FF000000FF000000FF000000FF000000FF000000FF000000FF000000FF000000FF000000FF000000FF000000FF000000FF000000FF000000FF000000FF000000FF000000FF000000FF000000FF000000FF000000FF000000FF000000FF000000FF000000FF000000FF000000FF000000FF000000
310
FF000000FF000000FF000000FF000000FF000000FF000000FF000000FF000000FF000000FF000000FF000000FF000000FF000000FF000000FF000000FF000000FF000000FF000000FF000000FF000000FF000000FF000000FF000000FF000000FF000000FF000000FF000000FF000000FF000000FF000000FF000000FF0000
310
00FF000000FF000000FF000000FF000000FF000000FF000000FF000000FF000000FF000000FF000000FF000000FF000000FF000000FF000000FF000000FF000000FF000000FF000000FF000000FF000000FF000000FF000000FF000000FF000000FF000000FF000000FF000000FF000000FF000000FF000000FF000000FF00
310
0000FF000000FF000000FF000000FF000000FF000000FF000000FF000000FF000000FF000000FF000000FF000000FF000000FF000000FF000000FF000000FF000000FF000000FF000000FF000000FF000000FF000000FF000000FF000000FF000000FF000000FF000000FF000000FF000000FF000000FF000000FF000000FF
310
000000FF000000FF000000FF000000FF000000FF000000FF000000FF000000FF000000FF000000FF000000FF000000FF000000FF000000FF000000FF000000FF000000FF000000FF000000FF000000FF000000FF000000FF000000FF000000FF000000FF000000FF000000FF000000FF000000FF000000FF000000FF000000
310
FF000000FF000000FF000000FF000000FF000000FF000000FF000000FF000000FF000000FF000000FF000000FF000000FF000000FF000000FF000000FF000000FF000000FF000000FF000000FF000000FF000000FF000000FF000000FF000000FF000000FF000000FF000000FF000000FF000000FF000000FF000000FF0000
310
00FF000000FF000000FF000000FF000000FF000000FF000000FF000000FF000000FF000000FF000000FF000000FF000000FF000000FF000000FF000000FF000000FF000000FF000000FF000000FF000000FF000000FF000000FFFFFFFFFFFFFFFFFFFFFFFFFFFFFFFFFFFFFFFFFFFFFFFFFFFFFFFFFF000000FF000000FF00
310
0000FF000000FF000000FF000000FF000000FF000000FF000000FF000000FF000000FF000000FF000000FF000000FF000000FF000000FF000000FF000000FF000000FF808080FFEFAC00FF808080FFFFFFFFFF808080FF808080FF808080FF808080FF808080FF808080FF808080FF808080FF808080FF808080FFFFFFFFFF
310
808080FF808080FF808080FF808080FF000000FF000000FF000000FF000000FF000000FF000000FF000000FF000000FF000000FF000000FF000000FF000000FFFFFFFFFF808080FFEFAC00FFEFAC00FF808080FF808080FF808080FF808080FF808080FF808080FF808080FF808080FF808080FF808080FF808080FF808080
310
FF808080FF808080FF808080FF808080FF000000FF000000FF000000FF000000FF000000FF000000FF000000FF000000FF000000FF000000FF000000FFFFFFFFFFFFFFFFFF808080FF808080FFEFAC00FFEFAC00FF808080FFEFAC00FFEFAC00FFEFAC00FFEFAC00FFEFAC00FFEFAC00FFEFAC00FFEFAC00FFEFAC00FFEFAC
310
00FFEFAC00FFEFAC00FFEFAC00FF808080FF000000FF000000FF000000FF000000FF000000FF000000FF000000FF000000FF000000FF000000FF000000FFFFFFFFFFFFFFFFFF808080FF808080FF0000FFFFEFAC00FFEFAC00FFFFFFFFFFFFFFFFFFFFFFFFFFFFFFFFFFFFFFFFFFFFFFFFFFFFFFFFFFFFFFFFFFFFFFFFFFFF
310
FFFFFFFFFFFFFFFFFFFFFFFFFFFFFFEFAC00FFEFAC00FFEFAC00FFFFFFFFFFFFFFFFFFFFFFFFFFFFFFFFFFFFFFFFFFFFFFFFFF000000FF000000FF000000FFFFFFFFFFFFFFFFFF808080FF808080FF0000FFFFFFFFFFFFFFFFFFFFFFFFFFFF808080FF808080FF808080FF808080FF808080FF808080FF808080FF808080FF
310
808080FF808080FF808080FF808080FFFFFFFFFFFFFFFFFFFFFFFFFFFFFFFFFFFFFFFFFFFFFFFFFFFFFFFFFFFFFFFFFFFFFFFFFFFFFFFFFF000000FF000000FFFFFFFFFFFFFFFFFF808080FF808080FF808080FF0000FFFF808080FF0000FFFF0000FFFF0000FFFF0000FFFF0000FFFF0000FFFF0000FFFF0000FFFF0000FF
310
FF0000FFFF0000FFFF0000FFFF0000FFFF0000FFFF0000FFFF0000FFFFFFFFFFFFFFFFFFFFFFFFFFFFFFFFFFFFFFFFFFFFFFFFFFFF000000FF000000FF000000FFFFFFFFFFFFFFFFFF808080FF808080FF808080FF0000FFFF808080FF0000FFFF808080FF808080FF808080FF808080FF808080FF808080FF808080FF8080
310
80FF808080FF808080FF808080FF808080FF808080FF000000FF000000FF000000FF000000FF000000FF000000FF000000FF000000FF000000FF000000FF000000FF000000FFFFFFFFFF808080FF808080FF808080FF0000FFFF0000FFFF0000FFFF808080FF808080FF808080FF808080FF808080FF808080FF808080FF80
310
8080FF808080FF808080FF808080FF808080FF808080FF000000FF000000FF000000FF000000FF000000FF000000FF000000FF000000FF000000FF000000FF000000FF000000FFFFFFFFFF808080FF808080FF808080FF808080FF808080FF808080FF808080FF808080FF808080FF808080FF808080FF808080FF808080FF
310
808080FF808080FF808080FF808080FF808080FF808080FF000000FF000000FF000000FF000000FF000000FF000000FF000000FF000000FF000000FF000000FF000000FFFFFFFFFFFFFFFFFFFFFFFFFFFFFFFFFFFFFFFFFFFFFFFFFFFFFFFFFFFFFFFFFFFFFFFFFFFFFFFFFFFFFFFFFF000000FF000000FF000000FF000000
310
FF000000FF000000FF000000FF000000FF000000FF000000FF000000FF000000FF000000FF000000FF000000FF000000FF000000FF000000FF000000FF000000FF000000FFFFFFFFFFFFFFFFFFFFFFFFFFFFFFFFFFFFFFFFFFFFFFFFFFFFFFFFFFFFFFFFFFFFFFFFFF000000FF000000FF000000FF000000FF000000FF0000
310
00FF000000FF000000FF000000FF000000FF000000FF000000FF000000FF000000FF000000FF000000FF000000FF000000FF000000FF000000FF000000FF000000FF000000FF000000FF000000FF000000FF000000FF000000FF000000FF000000FF000000FF000000FF000000FF000000FF000000FF000000FF000000FF00
310
0000FF000000FF000000FF000000FF000000FF000000FF000000FF000000FF000000FF000000FF000000FF000000FF000000FF000000FF000000FF000000FF000000FF000000FF000000FF000000FF000000FF000000FF000000FF000000FF000000FF000000FF000000FF000000FF000000FF000000FF000000FF000000FF
310
000000FF000000FF000000FF000000FF000000FF000000FF000000FF000000FF000000FF000000FF000000FF000000FF000000FF000000FF000000FF000000FF000000FF000000FF000000FF000000FF000000FF000000FF000000FF000000FF000000FF000000FF000000FF000000FF000000FF000000FF000000FF000000
310
FF000000FF000000FF000000FF000000FF000000FF000000FF000000FF000000FF000000FF000000FF000000FF000000FF000000FF000000FF000000FF000000FF000000FF000000FF000000FF000000FF000000FF000000FF000000FF000000FF000000FF000000FF000000FF000000FF000000FF000000FF000000FF0000
310
00FF000000FF000000FF000000FF000000FF000000FF000000FF000000FF000000FF000000FF000000FF000000FF000000FF000000FF000000FF000000FF000000FF000000FF000000FF000000FF000000FF000000FF000000FF000000FF000000FF000000FF000000FF000000FF000000FF000000FF000000FF000000FF00
310
0000FF000000FF000000FF000000FF000000FF000000FF000000FF000000FF000000FF000000FF000000FF000000FF000000FF000000FF000000FF000000FF000000FF000000FF000000FF000000FF000000FF000000FF000000FF000000FF000000FF000000FF000000FF000000FF000000FF000000FF000000FF000000FF
310
000000FF000000FF000000FF000000FF000000FF000000FF000000FF000000FF000000FF000000FF000000FF000000FF000000FF000000FF000000FF000000FF000000FF000000FF000000FF000000FF000000FF000000FF000000FF000000FF000000FF000000FF000000FF000000FF000000FF000000FF000000FF000000
310
FF000000FF000000FF000000FF000000FF000000FF000000FF000000FF000000FF000000FF000000FF000000FF000000FF000000FF000000FF000000FF000000FF000000FF000000FF000000FF000000FF000000FF000000FF000000FF000000FF000000FF000000FF000000FF000000FF000000FF000000FF000000FF0000
310
00FF000000FF000000FF000000FF000000FF000000FF000000FF000000FF000000FF000000FF000000FF000000FF000000FF000000FF000000FF000000FF000000FF000000FF000000FF000000FF000000FF000000FF000000FF000000FF000000FF000000FF000000FF000000FF000000FF000000FF000000FF000000FF00
310
0000FF000000FF000000FF000000FF000000FF000000FF000000FF000000FF000000FF000000FF000000FF000000FF000000FF000000FF000000FF000000FF000000FF000000FF000000FF000000FF000000FF000000FF000000FF000000FF000000FF000000FF000000FF000000FF000000FF000000FF000000FF000000FF
310
000000FF000000FF000000FF000000FF000000FF000000FF000000FF000000FF000000FF000000FF000000FF000000FF000000FF000000FF000000FF000000FF000000FF000000FF
102
{BLKREFS
331
71
102
}
 70
     0
280
     1
281
     1
1001
AcDbDynamicBlockGUID
1000
{034C9EDE-BFFD-4643-9D39-7206FD628674}
  0
ENDTAB
  0
ENDSEC
  0
SECTION
  2
BLOCKS
  0
BLOCK
  5
5
330
2
100
AcDbEntity
  8
0
100
AcDbBlockBegin
  2
*Model_Space
 70
     0
 10
0.0
 20
0.0
 30
0.0
  3
*Model_Space
  1

  0
ENDBLK
  5
134
330
2
100
AcDbEntity
  8
0
100
AcDbBlockEnd
  0
BLOCK
  5
13A
330
139
100
AcDbEntity
 67
     1
  8
0
100
AcDbBlockBegin
  2
*Paper_Space
 70
     0
 10
0.0
 20
0.0
 30
0.0
  3
*Paper_Space
  1

  0
ENDBLK
  5
146
330
139
100
AcDbEntity
 67
     1
  8
0
100
AcDbBlockEnd
  0
BLOCK
  5
23
330
20
100
AcDbEntity
  8
0
100
AcDbBlockBegin
  2
titleblock
 70
     2
 10
0.0
 20
0.0
 30
0.0
  3
titleblock
  1

  0
LWPOLYLINE
  5
24
330
20
100
AcDbEntity
  8
0
 62
     8
100
AcDbPolyline
 90
        8
 70
   129
 43
0.05
 10
0.25
 20
0.0
 10
16.25
 20
0.0
 42
0.4142135623730951
 10
16.5
 20
0.25
 10
16.5
 20
10.25
 42
0.4142135623730951
 10
16.25
 20
10.5
 10
0.25
 20
10.5
 42
0.4142135623730951
 10
0.0
 20
10.25
 10
0.0
 20
0.25
 42
0.4142135623730951
  0
ATTDEF
  5
25
102
{ACAD_XDICTIONARY
360
26
102
}
330
20
100
AcDbEntity
  8
LP_TitleBlock
 62
     7
100
AcDbText
 10
-0.035
 20
0.25
 30
0.0
 40
0.085
  1
LANDSCAPEPRODUCTS-EMITTER PLACEMENT.DXF - June 20, 2017
 50
90.0
  7
Arial
100
AcDbAttributeDefinition
280
     0
  3
MOD_DATE
  2
MOD_DATE
 70
     8
280
     1
  0
LWPOLYLINE
  5
2D
330
20
100
AcDbEntity
  8
defpoints
100
AcDbPolyline
 90
        4
 70
   129
 43
0.0
 10
-0.2499999999999982
 20
-0.25
 10
16.75
 20
-0.25
 10
16.75
 20
10.75
 10
-0.2499999999999982
 20
10.75
  0
TEXT
  5
31
330
20
100
AcDbEntity
  8
0
100
AcDbText
 10
0.2438608458390177
 20
-0.125448378586466
 30
0.0
 40
0.085
  1
LANDSCAPE PRODUCTS PRESENTS THIS PLAN AS A GENERAL GUIDE AND OFFERS NO INDEMNITY, EXPRESSED OR IMPLIED, FOR PROJECTS INSTALLED USING THIS PLAN. SINCE EACH SITE AND SYSTEM CONTAINS MANY VARIABLES, LANDSCAPE PRODUCTS EXPRESSLY RECOMMENDS THE USE OF A QUALIFIED IRRIGATION DESIGNER.
 41
0.8
  7
ArialNarrow
100
AcDbText
  0
ENDBLK
  5
33
330
20
100
AcDbEntity
  8
0
100
AcDbBlockEnd
  0
BLOCK
  5
50
330
45
100
AcDbEntity
  8
0
100
AcDbBlockBegin
  2
dtitle
 70
     2
 10
0.0
 20
0.0
 30
0.0
  3
dtitle
  1

  0
ATTDEF
  5
51
330
45
100
AcDbEntity
  8
0
100
AcDbText
 10
0.590628004818524
 20
0.4858094721253013
 30
0.0
 40
0.5
  1
1
  7
ArialNarrow
 72
     1
 11
0.7499049488840083
 21
0.7358094721253013
 31
0.0
100
AcDbAttributeDefinition
280
     0
  3
Number:
  2
#
 70
     0
 74
     2
280
     1
1001
AcDbBlockRepETag
1070
     1
1071
        0
1005
0
  0
ATTDEF
  5
53
330
45
100
AcDbEntity
  8
0
100
AcDbText
 10
1.185834988647621
 20
0.7858094721253015
 30
0.0
 40
0.25
  1

  7
ArialNarrow
 11
1.185834988647621
 21
0.9108094721253014
 31
0.0
100
AcDbAttributeDefinition
280
     0
  3
Enter Line 1 Description:
  2
NAME1
 70
     0
 74
     2
280
     1
1001
AcDbBlockRepETag
1070
     1
1071
        1
1005
0
  0
ATTDEF
  5
54
330
45
100
AcDbEntity
  8
0
100
AcDbText
 10
1.185834988647621
 20
0.5108094721253015
 30
0.0
 40
0.15
  1
N.T.S
  7
ArialNarrow
 11
1.185834988647621
 21
0.5858094721253014
 31
0.0
100
AcDbAttributeDefinition
280
     0
  3
Enter Line 2 Description:
  2
NAME2
 70
     0
 74
     2
280
     1
1001
AcDbBlockRepETag
1070
     1
1071
        2
1005
0
  0
LWPOLYLINE
  5
55
330
45
100
AcDbEntity
  8
0
 62
     8
100
AcDbPolyline
 90
        2
 70
   128
 43
0.05
 10
1.185834988647621
 20
0.7358094721253014
 10
7.68583498864762
 20
0.7358094721253014
1001
AcDbBlockRepETag
1070
     1
1071
        5
1005
55
  0
LWPOLYLINE
  5
56
330
45
100
AcDbEntity
  8
0
 62
     8
100
AcDbPolyline
 90
        2
 70
   129
 43
0.025
 10
7.67333498864762
 20
0.7358094721253013
 42
1.0
 10
7.69833498864762
 20
0.7358094721253013
 42
1.0
1001
AcDbBlockRepETag
1070
     1
1071
        6
1005
56
  0
LWPOLYLINE
  5
57
330
45
100
AcDbEntity
  8
0
 62
     8
100
AcDbPolyline
 90
        2
 70
   129
 43
0.025
 10
1.173334988647621
 20
0.7358094721253013
 42
1.0
 10
1.198334988647621
 20
0.7358094721253013
 42
1.0
1001
AcDbBlockRepETag
1070
     1
1071
        7
1005
57
  0
LWPOLYLINE
  5
58
330
45
100
AcDbEntity
  8
0
 62
     8
100
AcDbPolyline
 90
        8
 70
     1
 43
0.05
 10
0.5749049488840083
 20
1.110809472125301
 10
0.9249049488840082
 20
1.110809472125301
 42
-0.4142135623730951
 10
1.124904948884008
 20
0.9108094721253012
 10
1.124904948884008
 20
0.5608094721253013
 42
-0.4142135623730951
 10
0.9249049488840082
 20
0.3608094721253012
 10
0.5749049488840085
 20
0.3608094721253012
 42
-0.4142135623730951
 10
0.3749049488840083
 20
0.5608094721253013
 10
0.3749049488840082
 20
0.9108094721253012
 42
-0.4142135623730951
1001
AcDbBlockRepETag
1070
     1
1071
       12
1005
58
  0
ENDBLK
  5
59
330
45
100
AcDbEntity
  8
0
100
AcDbBlockEnd
  0
BLOCK
  5
F5
330
F3
100
AcDbEntity
  8
0
370
    40
100
AcDbBlockBegin
  2
Shrub3
 70
     0
 10
0.0
 20
0.0
 30
0.0
  3
Shrub3
  1

  0
CIRCLE
  5
F6
330
F3
100
AcDbEntity
  8
0
 62
     0
100
AcDbCircle
 10
0.0214763212304661
 20
-0.0046547131299803
 30
0.0
 40
0.75
  0
CIRCLE
  5
F7
330
F3
100
AcDbEntity
  8
0
 62
     0
100
AcDbCircle
 10
-0.2585638601110531
 20
0.0000264873921196
 30
0.0
 40
0.075
  0
CIRCLE
  5
F8
330
F3
100
AcDbEntity
  8
0
 62
     0
100
AcDbCircle
 10
-0.2585638601110531
 20
0.0000264873921196
 30
0.0
 40
0.125
  0
CIRCLE
  5
F9
330
F3
100
AcDbEntity
  8
0
 62
     0
100
AcDbCircle
 10
0.1646694109360851
 20
-0.2185195593559683
 30
0.0
 40
0.025
  0
CIRCLE
  5
FA
330
F3
100
AcDbEntity
  8
0
 62
     0
100
AcDbCircle
 10
0.1646694109360851
 20
-0.2185195593559683
 30
0.0
 40
0.125
  0
CIRCLE
  5
FB
330
F3
100
AcDbEntity
  8
0
 62
     0
100
AcDbCircle
 10
0.1646694109360851
 20
-0.2185195593559683
 30
0.0
 40
0.075
  0
CIRCLE
  5
FC
330
F3
100
AcDbEntity
  8
0
 62
     0
100
AcDbCircle
 10
-0.2585638601110531
 20
0.0000264873921196
 30
0.0
 40
0.025
  0
CIRCLE
  5
FD
330
F3
100
AcDbEntity
  8
0
 62
     0
100
AcDbCircle
 10
0.1473456000146598
 20
0.2521666207345561
 30
0.0
 40
0.025
  0
CIRCLE
  5
FE
330
F3
100
AcDbEntity
  8
0
 62
     0
100
AcDbCircle
 10
0.1473456000146598
 20
0.2521666207345561
 30
0.0
 40
0.075
  0
CIRCLE
  5
FF
330
F3
100
AcDbEntity
  8
0
 62
     0
100
AcDbCircle
 10
0.1473456000146598
 20
0.2521666207345561
 30
0.0
 40
0.125
  0
ENDBLK
  5
100
330
F3
100
AcDbEntity
  8
0
370
    40
100
AcDbBlockEnd
  0
BLOCK
  5
D2
330
D0
100
AcDbEntity
  8
0
370
    40
100
AcDbBlockBegin
  2
Shrub2
 70
     0
 10
0.0
 20
0.0
 30
0.0
  3
Shrub2
  1

  0
LINE
  5
D3
330
D0
100
AcDbEntity
  8
0
 62
     0
100
AcDbLine
 10
-0.265125319377141
 20
-0.0151253193770558
 30
0.0
 11
0.234874680622859
 21
-0.0151253193770558
 31
0.0
  0
LINE
  5
D4
330
D0
100
AcDbEntity
  8
0
 62
     0
100
AcDbLine
 10
-0.1919020146738077
 20
0.1616513759194547
 30
0.0
 11
0.1616513759195257
 21
-0.1919020146737225
 31
0.0
  0
LINE
  5
D5
330
D0
100
AcDbEntity
  8
0
 62
     0
100
AcDbLine
 10
-0.1919020146738077
 20
-0.1919020146737225
 30
0.0
 11
0.1616513759195257
 21
0.1616513759194547
 31
0.0
  0
LINE
  5
D6
330
D0
100
AcDbEntity
  8
0
 62
     0
100
AcDbLine
 10
-0.015125319377141
 20
0.2348746806229442
 30
0.0
 11
-0.015125319377141
 21
-0.2651253193770557
 31
0.0
  0
ENDBLK
  5
D7
330
D0
100
AcDbEntity
  8
0
370
    40
100
AcDbBlockEnd
  0
BLOCK
  5
119
330
117
100
AcDbEntity
  8
0
100
AcDbBlockBegin
  2
_CustomLeaderRJP
 70
     0
 10
0.0
 20
0.0
 30
0.0
  3
_CustomLeaderRJP
  1

  0
LWPOLYLINE
  5
11A
330
117
100
AcDbEntity
  8
0
 62
     0
100
AcDbPolyline
 90
        2
 70
     0
 43
0.025
 10
0.0
 20
0.0
 42
-0.1295107042558346
 10
-1.0
 20
0.3557325540248151
 42
-0.1295107042558346
  0
LWPOLYLINE
  5
11B
330
117
100
AcDbEntity
  8
0
100
AcDbPolyline
 90
        2
 70
   128
 10
0.0
 20
0.0
 40
0.0
 41
0.2
 10
-0.5
 20
0.0
 40
0.025
 41
0.025
  0
LWPOLYLINE
  5
11C
330
117
100
AcDbEntity
  8
0
 62
     0
100
AcDbPolyline
 90
        2
 70
     0
 43
0.025
 10
0.0
 20
0.0
 42
0.1295107042558346
 10
-1.0
 20
-0.3557325540248151
 42
0.1295107042558346
  0
LWPOLYLINE
  5
11D
330
117
100
AcDbEntity
  8
0
100
AcDbPolyline
 90
        2
 70
   128
 10
-1.0
 20
0.0000000000000001
 40
0.0
 41
0.2
 10
-0.5
 20
0.0
 40
0.025
 41
0.025
  0
ENDBLK
  5
11E
330
117
100
AcDbEntity
  8
0
100
AcDbBlockEnd
  0
BLOCK
  5
DC
330
D9
100
AcDbEntity
  8
0
100
AcDbBlockBegin
  2
Pine
 70
     0
 10
0.0
 20
0.0
 30
0.0
  3
Pine
  1

  0
LWPOLYLINE
  5
DD
330
D9
100
AcDbEntity
  8
0
 62
     0
100
AcDbPolyline
 90
        2
 70
     0
 43
0.0
 10
0.0052553042769432
 20
8.999998465646058
 10
0.0
 20
0.0
  0
LWPOLYLINE
  5
DE
330
D9
100
AcDbEntity
  8
0
 62
     0
100
AcDbPolyline
 90
        2
 70
     0
 43
0.0
 10
0.0
 20
0.0
 10
0.6141188740730286
 20
10.12549360026605
  0
CIRCLE
  5
DF
330
D9
100
AcDbEntity
  8
0
 62
     0
100
AcDbCircle
 10
0.0
 20
0.0
 30
0.0
 40
8.91
  0
CIRCLE
  5
E0
330
D9
100
AcDbEntity
  8
0
 62
     0
100
AcDbCircle
 10
0.0
 20
0.0
 30
0.0
 40
9.0
  0
LINE
  5
E1
330
D9
100
AcDbEntity
  8
0
 62
     0
100
AcDbLine
 10
0.0
 20
0.0
 30
0.0
 11
8.099423323757946
 21
6.107544879661872
 31
0.0
  0
LWPOLYLINE
  5
E2
330
D9
100
AcDbEntity
  8
0
 62
     0
100
AcDbPolyline
 90
        2
 70
     0
 43
0.0
 10
5.999293038621544
 20
6.708836190635338
 10
0.0
 20
0.0
  0
LWPOLYLINE
  5
E3
330
D9
100
AcDbEntity
  8
0
 62
     0
100
AcDbPolyline
 90
        2
 70
     0
 43
0.0
 10
0.0
 20
0.0
 10
7.616538306698203
 20
-4.794616170693188
  0
LWPOLYLINE
  5
E4
330
D9
100
AcDbEntity
  8
0
 62
     0
100
AcDbPolyline
 90
        2
 70
     0
 43
0.0
 10
0.0
 20
0.0
 10
8.913988661952316
 20
-1.241292119957506
  0
LWPOLYLINE
  5
E5
330
D9
100
AcDbEntity
  8
0
 62
     0
100
AcDbPolyline
 90
        2
 70
     0
 43
0.0
 10
0.0
 20
0.0
 10
8.036160202696919
 20
-6.190548588754609
  0
LWPOLYLINE
  5
E6
330
D9
100
AcDbEntity
  8
0
 62
     0
100
AcDbPolyline
 90
        2
 70
     0
 43
0.0
 10
0.0
 20
0.0
 10
9.919589560478925
 20
-2.122382054105401
  0
LINE
  5
E7
330
D9
100
AcDbEntity
  8
0
 62
     0
100
AcDbLine
 10
0.0
 20
0.0
 30
0.0
 11
4.917445186525583
 21
-7.537820164812728
 31
0.0
  0
LINE
  5
E8
330
D9
100
AcDbEntity
  8
0
 62
     0
100
AcDbLine
 10
0.0
 20
0.0
 30
0.0
 11
3.906066576950252
 21
-9.361912546912208
 31
0.0
  0
LWPOLYLINE
  5
E9
330
D9
100
AcDbEntity
  8
0
 62
     0
100
AcDbPolyline
 90
        2
 70
     0
 43
0.0
 10
0.0
 20
0.0
 10
-4.508668389171361
 20
-7.78921750630252
  0
LWPOLYLINE
  5
EA
330
D9
100
AcDbEntity
  8
0
 62
     0
100
AcDbPolyline
 90
        2
 70
     0
 43
0.0
 10
0.0
 20
0.0
 10
-0.9025167692452669
 20
-8.954633631976321
  0
LWPOLYLINE
  5
EB
330
D9
100
AcDbEntity
  8
0
 62
     0
100
AcDbPolyline
 90
        2
 70
     0
 43
0.0
 10
0.0
 20
0.0
 10
-1.475789693184196
 20
-10.03617493971251
  0
LINE
  5
EC
330
D9
100
AcDbEntity
  8
0
 62
     0
100
AcDbLine
 10
0.0
 20
0.0
 30
0.0
 11
-9.949955429881811
 21
-1.975132799940183
 31
0.0
  0
LINE
  5
ED
330
D9
100
AcDbEntity
  8
0
 62
     0
100
AcDbLine
 10
0.0
 20
0.0
 30
0.0
 11
-8.062429036013782
 21
-3.999654740327969
 31
0.0
  0
LINE
  5
EE
330
D9
100
AcDbEntity
  8
0
 62
     0
100
AcDbLine
 10
0.0
 20
0.0
 30
0.0
 11
-7.956409045495092
 21
-6.292719423538073
 31
0.0
  0
ENDBLK
  5
EF
330
D9
100
AcDbEntity
  8
0
100
AcDbBlockEnd
  0
BLOCK
  5
B5
330
B2
100
AcDbEntity
  8
0
100
AcDbBlockBegin
  2
Juniper
 70
     0
 10
0.0
 20
0.0
 30
0.0
  3
Juniper
  1

  0
LINE
  5
B6
330
B2
100
AcDbEntity
  8
0
 62
     0
100
AcDbLine
 10
-2.160319497328465
 20
-0.7850098875627588
 30
0.0
 11
-4.680763538926839
 21
-1.700880663283169
 31
0.0
  0
LINE
  5
B7
330
B2
100
AcDbEntity
  8
0
 62
     0
100
AcDbLine
 10
-1.990581734205292
 20
-1.149262900104697
 30
0.0
 11
-4.635682080313563
 21
-2.676412297040224
 31
0.0
  0
LWPOLYLINE
  5
B8
330
B2
100
AcDbEntity
  8
0
 62
     0
100
AcDbPolyline
 90
       27
 70
     0
 43
0.0
 10
0.5445766355842352
 20
6.05784423649311
 42
-0.9999999999999998
 10
-0.4890211846679449
 20
6.062581858225167
 42
-0.9999999999999998
 10
-2.484408334642648
 20
5.551734479703009
 42
-0.9999999999999998
 10
-3.805488527193665
 20
4.744712591543794
 42
-0.9999999999999998
 10
-4.194879617542028
 20
4.40420543346554
 42
-0.9999999999999998
 10
-4.880042665824294
 20
3.630320108309388
 42
-0.9999999999999998
 10
-5.943227158859372
 20
1.293093749321997
 42
-0.9999999999999998
 10
-6.077166410908103
 20
-0.2491764863952994
 42
-0.9999999999999998
 10
-5.947224099189043
 20
-1.274584646336734
 42
-0.9999999999999998
 10
-5.180804266780615
 20
-3.18642552960664
 42
-0.9999999999999998
 10
-4.566460101678967
 20
-4.01764640621841
 42
-0.9999999999999998
 10
-2.963698809966444
 20
-5.311358570680022
 42
-0.9999999999999998
 10
-1.526833400130271
 20
-5.88751392941922
 42
-0.9999999999999998
 10
-1.021055864170193
 20
-5.995955755934119
 42
-0.9999999999999998
 10
0.0089428879320622
 20
-6.082266068458557
 42
-0.9999999999999998
 10
2.517972306534648
 20
-5.536592450924217
 42
-0.9999999999999998
 10
3.834142681956291
 20
-4.721587698720395
 42
-0.9999999999999998
 10
4.578254797682165
 20
-4.004200733080506
 42
-0.9999999999999998
 10
5.652163339033723
 20
-2.246572966501116
 42
-0.9999999999999998
 10
5.950946475937962
 20
-1.257090507633984
 42
-0.9999999999999998
 10
6.029277034848928
 20
0.8011609941720962
 42
-0.9999999999999998
 10
5.631728060543537
 20
2.297320082038641
 42
-0.9999999999999998
 10
5.416160592809319
 20
2.767534089647233
 42
-0.9999999999999998
 10
4.869346111640334
 20
3.644654846563935
 42
-0.9999999999999998
 10
2.931490207463502
 20
5.32920309882611
 42
-0.9999999999999998
 10
1.491163156181573
 20
5.896649298258125
 42
-0.9999999999999998
 10
0.5895479105412961
 20
6.053633104823529
  0
LINE
  5
B9
330
B2
100
AcDbEntity
  8
0
 62
     0
100
AcDbLine
 10
-0.477890385549446
 20
-2.248297496664578
 30
0.0
 11
-1.20970278866589
 21
-5.691204161942005
 31
0.0
  0
LINE
  5
BA
330
B2
100
AcDbEntity
  8
0
 62
     0
100
AcDbLine
 10
1.35103956743517
 20
-1.859546434304182
 30
0.0
 11
3.164196816086769
 21
-4.355143290571868
 31
0.0
  0
LINE
  5
BB
330
B2
100
AcDbEntity
  8
0
 62
     0
100
AcDbLine
 10
1.990581734215624
 20
-1.149262900086802
 30
0.0
 11
4.307236222177744
 21
-2.486783992312848
 31
0.0
  0
LINE
  5
BC
330
B2
100
AcDbEntity
  8
0
 62
     0
100
AcDbLine
 10
2.186027940146343
 20
0.7102835342370984
 30
0.0
 11
5.062395169958472
 21
1.644871900789439
 31
0.0
  0
LINE
  5
BD
330
B2
100
AcDbEntity
  8
0
 62
     0
100
AcDbLine
 10
2.272404443296703
 20
0.345541459443305
 30
0.0
 11
5.52142830863595
 21
0.8395875133574008
 31
0.0
  0
LINE
  5
BE
330
B2
100
AcDbEntity
  8
0
 62
     0
100
AcDbLine
 10
-0.9348946679512302
 20
2.09980780404902
 30
0.0
 11
-2.310083571076393
 21
5.188532651402056
 31
0.0
  0
LINE
  5
BF
330
B2
100
AcDbEntity
  8
0
 62
     0
100
AcDbLine
 10
0.9348946679461466
 20
2.099807804051283
 30
0.0
 11
2.155315446108579
 21
4.840917751379311
 31
0.0
  0
LINE
  5
C0
330
B2
100
AcDbEntity
  8
0
 62
     0
100
AcDbLine
 10
-0.5396480287365956
 20
2.234278599277519
 30
0.0
 11
-1.166215908527374
 21
4.828427247330546
 31
0.0
  0
LINE
  5
C1
330
B2
100
AcDbEntity
  8
0
 62
     0
100
AcDbLine
 10
-1.200470087000249
 20
1.960125614425367
 30
0.0
 11
-2.746561174467206
 21
4.484580638632178
 31
0.0
  0
LINE
  5
C2
330
B2
100
AcDbEntity
  8
0
 62
     0
100
AcDbLine
 10
0.0
 20
0.0
 30
0.0
 11
0.8109696857631206
 21
0.0
 31
0.0
  0
LINE
  5
C3
330
B2
100
AcDbEntity
  8
0
 62
     0
100
AcDbLine
 10
0.0
 20
0.0
 30
0.0
 11
0.0
 21
0.8109696857631206
 31
0.0
  0
LINE
  5
C4
330
B2
100
AcDbEntity
  8
0
 62
     0
100
AcDbLine
 10
0.0
 20
0.0
 30
0.0
 11
-0.8109696857631206
 21
0.0
 31
0.0
  0
LINE
  5
C5
330
B2
100
AcDbEntity
  8
0
 62
     0
100
AcDbLine
 10
0.0
 20
0.0
 30
0.0
 11
0.0
 21
-0.8109696857631206
 31
0.0
  0
LWPOLYLINE
  5
C6
330
B2
100
AcDbEntity
  8
0
 62
     0
100
AcDbPolyline
 90
        2
 70
     0
 43
0.0
 10
0.5165045199278508
 20
-2.239741934911902
 10
1.047846252843737
 20
-4.543823148496449
  0
LWPOLYLINE
  5
C7
330
B2
100
AcDbEntity
  8
0
 62
     0
100
AcDbPolyline
 90
        2
 70
     0
 43
0.0
 10
-2.181206951740647
 20
0.7249531624781572
 10
-4.548145643249154
 20
1.511636740900576
  0
LWPOLYLINE
  5
C8
330
B2
100
AcDbEntity
  8
0
 62
     0
100
AcDbPolyline
 90
        2
 70
     0
 43
0.0
 10
0.3048606609922099
 20
2.278218784815936
 10
0.7520187433809042
 20
5.619823896512389
  0
LWPOLYLINE
  5
C9
330
B2
100
AcDbEntity
  8
0
 62
     0
100
AcDbPolyline
 90
        2
 70
     0
 43
0.0
 10
-2.290420729240938
 20
-0.1928567789117564
 10
-5.585496785119175
 20
-0.470307007431984
  0
LWPOLYLINE
  5
CA
330
B2
100
AcDbEntity
  8
0
 62
     0
100
AcDbPolyline
 90
        2
 70
     0
 43
0.0
 10
1.600513206357261
 20
1.649720682535321
 10
3.268741688877344
 20
3.369238534383475
  0
LWPOLYLINE
  5
CB
330
B2
100
AcDbEntity
  8
0
 62
     0
100
AcDbPolyline
 90
        2
 70
     0
 43
0.0
 10
2.230272634878454
 20
-0.5559719671180634
 10
5.462571246549487
 20
-1.361733285151422
  0
LWPOLYLINE
  5
CC
330
B2
100
AcDbEntity
  8
0
 62
     0
100
AcDbPolyline
 90
        2
 70
     0
 43
0.0
 10
-1.327402924789618
 20
-1.876492027526036
 10
-2.902059112116694
 20
-4.102515284717083
  0
CIRCLE
  5
CD
330
B2
100
AcDbEntity
  8
0
 62
     0
100
AcDbCircle
 10
0.0
 20
0.0
 30
0.0
 40
2.298525800183415
  0
ENDBLK
  5
CE
330
B2
100
AcDbEntity
  8
0
100
AcDbBlockEnd
  0
BLOCK
  5
62
330
5F
100
AcDbEntity
  8
0
100
AcDbBlockBegin
  2
*U7
 70
     3
 10
0.0
 20
0.0
 30
0.0
  3
*U7
  1

  0
ATTDEF
  5
63
330
5F
100
AcDbEntity
  8
0
100
AcDbText
 10
0.590628004818524
 20
0.4858094721253013
 30
0.0
 40
0.5
  1
1
  7
ArialNarrow
 72
     1
 11
0.7499049488840083
 21
0.7358094721253013
 31
0.0
100
AcDbAttributeDefinition
280
     0
  3
Number:
  2
#
 70
     0
 74
     2
280
     1
1001
AcDbBlockRepETag
1070
     1
1071
        0
1005
0
  0
ATTDEF
  5
64
330
5F
100
AcDbEntity
  8
0
100
AcDbText
 10
1.185834988647621
 20
0.7858094721253015
 30
0.0
 40
0.25
  1

  7
ArialNarrow
 11
1.185834988647621
 21
0.9108094721253014
 31
0.0
100
AcDbAttributeDefinition
280
     0
  3
Enter Line 1 Description:
  2
NAME1
 70
     0
 74
     2
280
     1
1001
AcDbBlockRepETag
1070
     1
1071
        1
1005
0
  0
ATTDEF
  5
65
330
5F
100
AcDbEntity
  8
0
100
AcDbText
 10
1.185834988647621
 20
0.5108094721253015
 30
0.0
 40
0.15
  1
N.T.S
  7
ArialNarrow
 11
1.185834988647621
 21
0.5858094721253014
 31
0.0
100
AcDbAttributeDefinition
280
     0
  3
Enter Line 2 Description:
  2
NAME2
 70
     0
 74
     2
280
     1
1001
AcDbBlockRepETag
1070
     1
1071
        2
1005
0
  0
LWPOLYLINE
  5
66
330
5F
100
AcDbEntity
  8
0
 62
     8
100
AcDbPolyline
 90
        2
 70
   128
 43
0.05
 10
1.185834988647621
 20
0.7358094721253014
 10
11.85250165531428
 20
0.7358094721253014
1001
AcDbBlockRepETag
1070
     1
1071
        5
1005
66
  0
LWPOLYLINE
  5
67
330
5F
100
AcDbEntity
  8
0
 62
     8
100
AcDbPolyline
 90
        2
 70
   129
 43
0.025
 10
11.84000165531428
 20
0.7358094721253013
 42
1.0
 10
11.86500165531429
 20
0.7358094721253013
 42
1.0
1001
AcDbBlockRepETag
1070
     1
1071
        6
1005
67
  0
LWPOLYLINE
  5
68
330
5F
100
AcDbEntity
  8
0
 62
     8
100
AcDbPolyline
 90
        2
 70
   129
 43
0.025
 10
1.173334988647621
 20
0.7358094721253013
 42
1.0
 10
1.198334988647621
 20
0.7358094721253013
 42
1.0
1001
AcDbBlockRepETag
1070
     1
1071
        7
1005
68
  0
LWPOLYLINE
  5
69
330
5F
100
AcDbEntity
  8
0
 62
     8
100
AcDbPolyline
 90
        8
 70
     1
 43
0.05
 10
0.5749049488840083
 20
1.110809472125301
 10
0.9249049488840082
 20
1.110809472125301
 42
-0.4142135623730951
 10
1.124904948884008
 20
0.9108094721253012
 10
1.124904948884008
 20
0.5608094721253013
 42
-0.4142135623730951
 10
0.9249049488840082
 20
0.3608094721253012
 10
0.5749049488840085
 20
0.3608094721253012
 42
-0.4142135623730951
 10
0.3749049488840083
 20
0.5608094721253013
 10
0.3749049488840082
 20
0.9108094721253012
 42
-0.4142135623730951
1001
AcDbBlockRepETag
1070
     1
1071
       12
1005
69
  0
ENDBLK
  5
6A
330
5F
100
AcDbEntity
  8
0
100
AcDbBlockEnd
  0
BLOCK
  5
75
330
72
100
AcDbEntity
  8
0
100
AcDbBlockBegin
  2
PC_FlowChart
 70
     0
 10
0.0
 20
0.0
 30
0.0
  3
PC_FlowChart
  1

  0
MTEXT
  5
76
330
72
100
AcDbEntity
  8
LP_Text
100
AcDbMText
 10
-5.542882878802487
 20
3.546647972782558
 30
0.0
 40
0.15
 41
6.219800903819918
 46
0.0
 71
     1
 72
     5
  1
Emitter Discharge Rates\PAt Various Operating Pressures
  7
ArialNarrow
 73
     1
 44
0.75
  0
MTEXT
  5
77
330
72
100
AcDbEntity
  8
LP_Text
100
AcDbMText
 10
-5.232591
 20
2.423120767574911
 30
0.0
 40
0.15
 41
0.0
 46
0.0
 71
     5
 72
     5
  1
4
  7
ArialNarrow
 73
     1
 44
1.0
  0
MTEXT
  5
78
330
72
100
AcDbEntity
  8
LP_Text
100
AcDbMText
 10
-5.232591
 20
2.086747802417954
 30
0.0
 40
0.15
 41
0.0
 46
0.0
 71
     5
 72
     5
  1
3
  7
ArialNarrow
 73
     1
 44
1.0
  0
MTEXT
  5
79
330
72
100
AcDbEntity
  8
LP_Text
100
AcDbMText
 10
-5.232591
 20
1.414001872104038
 30
0.0
 40
0.15
 41
0.0
 46
0.0
 71
     5
 72
     5
  1
1
  7
ArialNarrow
 73
     1
 44
1.0
  0
MTEXT
  5
7A
330
72
100
AcDbEntity
  8
LP_Text
100
AcDbMText
 10
-5.232591
 20
1.095866697888826
 30
0.0
 40
0.15
 41
0.0
 46
0.0
 71
     5
 72
     5
  1
0
  7
ArialNarrow
 73
     1
 44
1.0
  0
MTEXT
  5
7B
330
72
100
AcDbEntity
  8
LP_Text
100
AcDbMText
 10
-5.092973197572632
 20
0.9958666978888262
 30
0.0
 40
0.15
 41
0.0
 46
0.0
 71
     2
 72
     5
  1
15
  7
ArialNarrow
 73
     1
 44
1.0
  0
MTEXT
  5
7C
330
72
100
AcDbEntity
  8
LP_Text
100
AcDbMText
 10
-4.127687969716856
 20
0.9958666978888262
 30
0.0
 40
0.15
 41
0.0
 46
0.0
 71
     2
 72
     5
  1
20
  7
ArialNarrow
 73
     1
 44
1.0
  0
MTEXT
  5
7D
330
72
100
AcDbEntity
  8
LP_Text
100
AcDbMText
 10
-3.16241440285273
 20
0.6958666978888263
 30
0.0
 40
0.15
 41
0.0
 46
0.0
 71
     5
 72
     5
  1
Operating Pressure (PSI)
  7
ArialNarrow
 73
     1
 44
1.0
  0
MTEXT
  5
7E
330
72
100
AcDbEntity
  8
LP_Text
100
AcDbMText
 10
-3.162402741861078
 20
0.9958666978888262
 30
0.0
 40
0.15
 41
0.0
 46
0.0
 71
     2
 72
     5
  1
30
  7
ArialNarrow
 73
     1
 44
1.0
  0
MTEXT
  5
7F
330
72
100
AcDbEntity
  8
LP_Text
100
AcDbMText
 10
-2.197117514005302
 20
0.9958666978888262
 30
0.0
 40
0.15
 41
0.0
 46
0.0
 71
     2
 72
     5
  1
40
  7
ArialNarrow
 73
     1
 44
1.0
  0
MTEXT
  5
80
330
72
100
AcDbEntity
  8
LP_Text
100
AcDbMText
 10
-3.220650299483539
 20
4.325961283015189
 30
0.0
 40
0.15
 41
0.0
 46
0.0
 71
     4
 72
     5
  1
Red: 2 GPH (12001513)
  7
ArialNarrow
 73
     1
 44
1.0
  0
MTEXT
  5
81
330
72
100
AcDbEntity
  8
LP_Text
100
AcDbMText
 10
-3.220650299483539
 20
4.107211283015184
 30
0.0
 40
0.15
 41
0.0
 46
0.0
 71
     4
 72
     5
  1
Black: 1 GPH (12001512)
  7
ArialNarrow
 73
     1
 44
1.0
  0
MTEXT
  5
82
330
72
100
AcDbEntity
  8
LP_Text
100
AcDbMText
 10
-3.220650299483539
 20
3.888461283015187
 30
0.0
 40
0.15
 41
0.0
 46
0.0
 71
     4
 72
     5
  1
Blue: 0.5 GPH (12001511)
  7
ArialNarrow
 73
     1
 44
1.0
  0
MTEXT
  5
83
330
72
100
AcDbEntity
  8
LP_Text
100
AcDbMText
 10
-5.460458578404273
 20
2.056003875560342
 30
0.0
 40
0.15
 41
0.0
 46
0.0
 71
     5
 72
     5
  1
Flow (GPH)
  7
ArialNarrow
 11
0.0000000000000001
 21
1.0
 31
0.0
 73
     1
 44
1.0
  0
LWPOLYLINE
  5
84
330
72
100
AcDbEntity
  8
0
 62
     1
420
 16711680
370
    -3
100
AcDbPolyline
 90
        2
 70
     0
 43
0.025
 10
-3.64117961507287
 20
4.325961283015189
 10
-3.32867961507287
 20
4.325961283015189
  0
LWPOLYLINE
  5
85
330
72
100
AcDbEntity
  8
0
370
    -3
100
AcDbPolyline
 90
        2
 70
     0
 43
0.025
 10
-3.64117961507287
 20
4.107211283015184
 10
-3.32867961507287
 20
4.107211283015184
  0
LWPOLYLINE
  5
86
330
72
100
AcDbEntity
  8
0
 62
   140
420
    44271
370
    -3
100
AcDbPolyline
 90
        2
 70
     0
 43
0.025
 10
-3.64117961507287
 20
3.888461283015187
 10
-3.32867961507287
 20
3.888461283015187
  0
LWPOLYLINE
  5
87
330
72
100
AcDbEntity
  8
LP_Hatch
100
AcDbPolyline
 90
        4
 70
     1
 43
0.0
 10
-5.092973197572632
 20
3.095866697888825
 10
-1.231855608132828
 20
3.095866697888825
 10
-1.231855608132828
 20
1.095866697888826
 10
-5.092973197572632
 20
1.095866697888826
  0
LWPOLYLINE
  5
89
330
72
100
AcDbEntity
  8
LP_Hatch
100
AcDbPolyline
 90
        2
 70
     0
 43
0.0
 10
-4.127687969716856
 20
3.095866697888825
 10
-4.127687969716856
 20
1.095866697888826
  0
LWPOLYLINE
  5
8A
330
72
100
AcDbEntity
  8
LP_Hatch
100
AcDbPolyline
 90
        2
 70
     0
 43
0.0
 10
-3.162402741861078
 20
3.095866697888825
 10
-3.162402741861078
 20
1.095866697888826
  0
LWPOLYLINE
  5
8B
330
72
100
AcDbEntity
  8
LP_Hatch
100
AcDbPolyline
 90
        2
 70
     0
 43
0.0
 10
-2.197117514005302
 20
3.095866697888825
 10
-2.197117514005302
 20
1.095866697888826
  0
LWPOLYLINE
  5
8C
330
72
100
AcDbEntity
  8
LP_Hatch
100
AcDbPolyline
 90
        2
 70
     0
 43
0.0
 10
-5.092973197572632
 20
2.423120767574911
 10
-1.231855608132828
 20
2.423120767574911
  0
LWPOLYLINE
  5
8D
330
72
100
AcDbEntity
  8
LP_Hatch
100
AcDbPolyline
 90
        2
 70
     0
 43
0.0
 10
-5.092973197572632
 20
2.759493732731869
 10
-1.231855608132828
 20
2.759493732731869
  0
LWPOLYLINE
  5
8E
330
72
100
AcDbEntity
  8
LP_Hatch
100
AcDbPolyline
 90
        2
 70
     0
 43
0.0
 10
-5.092973197572632
 20
2.086747802417954
 10
-1.231855608132828
 20
2.086747802417954
  0
LWPOLYLINE
  5
8F
330
72
100
AcDbEntity
  8
0
100
AcDbPolyline
 90
        2
 70
   128
 43
0.0
 10
-5.092973197572632
 20
1.750374837260996
 10
-1.231855608132828
 20
1.750374837260996
  0
LWPOLYLINE
  5
90
330
72
100
AcDbEntity
  8
LP_Hatch
100
AcDbPolyline
 90
        2
 70
     0
 43
0.0
 10
-5.092973197572632
 20
1.414001872104038
 10
-1.231855608132828
 20
1.414001872104038
  0
LWPOLYLINE
  5
91
330
72
100
AcDbEntity
  8
0
370
    -3
100
AcDbPolyline
 90
        2
 70
     1
 43
0.025
 10
-4.149286784632507
 20
1.419054162420712
 42
1.0
 10
-4.114968206960472
 20
1.419054162420712
 42
1.0
  0
LWPOLYLINE
  5
92
330
72
100
AcDbEntity
  8
0
370
    -3
100
AcDbPolyline
 90
        2
 70
     1
 43
0.025
 10
-5.114560351496633
 20
1.409958588933143
 42
1.0
 10
-5.080241773824598
 20
1.409958588933143
 42
1.0
  0
LWPOLYLINE
  5
93
330
72
100
AcDbEntity
  8
0
370
    -3
100
AcDbPolyline
 90
        2
 70
     1
 43
0.025
 10
-3.184144800415833
 20
1.427726859276951
 42
1.0
 10
-3.149826222743798
 20
1.427726859276951
 42
1.0
  0
LWPOLYLINE
  5
94
330
72
100
AcDbEntity
  8
0
370
    -3
100
AcDbPolyline
 90
        2
 70
     1
 43
0.025
 10
-2.218871233551708
 20
1.418642946781031
 42
1.0
 10
-2.184552655879672
 20
1.418642946781031
 42
1.0
  0
LWPOLYLINE
  5
95
330
72
100
AcDbEntity
  8
0
370
    -3
100
AcDbPolyline
 90
        2
 70
     1
 43
0.025
 10
-1.253597666687582
 20
1.418584641822777
 42
1.0
 10
-1.219279089015547
 20
1.418584641822777
 42
1.0
  0
LWPOLYLINE
  5
96
330
72
100
AcDbEntity
  8
0
 62
   140
420
    44271
370
    -3
100
AcDbPolyline
 90
        2
 70
     1
 43
0.025
 10
-1.253551022720979
 20
1.264088163442257
 42
1.0
 10
-1.219232445048944
 20
1.264088163442257
 42
1.0
  0
LWPOLYLINE
  5
97
330
72
100
AcDbEntity
  8
0
 62
   140
420
    44271
370
    -3
100
AcDbPolyline
 90
        2
 70
     1
 43
0.025
 10
-2.218871233551708
 20
1.264088163442257
 42
1.0
 10
-2.184552655879672
 20
1.264088163442257
 42
1.0
  0
LWPOLYLINE
  5
98
330
72
100
AcDbEntity
  8
0
 62
   140
420
    44271
370
    -3
100
AcDbPolyline
 90
        2
 70
     1
 43
0.025
 10
-3.184109817440881
 20
1.264088163442257
 42
1.0
 10
-3.149791239768846
 20
1.264088163442257
 42
1.0
  0
LWPOLYLINE
  5
99
330
72
100
AcDbEntity
  8
0
 62
   140
420
    44271
370
    -3
100
AcDbPolyline
 90
        2
 70
     1
 43
0.025
 10
-4.14943002827161
 20
1.264088163442257
 42
1.0
 10
-4.115111450599575
 20
1.264088163442257
 42
1.0
  0
LWPOLYLINE
  5
9A
330
72
100
AcDbEntity
  8
0
 62
   140
420
    44271
370
    -3
100
AcDbPolyline
 90
        2
 70
     1
 43
0.025
 10
-5.114656951169132
 20
1.254992589954686
 42
1.0
 10
-5.080338373497097
 20
1.254992589954686
 42
1.0
  0
LWPOLYLINE
  5
9B
330
72
100
AcDbEntity
  8
0
 62
     1
420
 16711680
370
    -3
100
AcDbPolyline
 90
        2
 70
     1
 43
0.025
 10
-5.114703595135736
 20
1.745920338450418
 42
1.0
 10
-5.0803850174637
 20
1.745920338450418
 42
1.0
  0
LWPOLYLINE
  5
9C
330
72
100
AcDbEntity
  8
0
 62
     1
420
 16711680
370
    -3
100
AcDbPolyline
 90
        2
 70
     1
 43
0.025
 10
-4.149371723313357
 20
1.745862033492165
 42
1.0
 10
-4.11505314564132
 20
1.745862033492165
 42
1.0
  0
LWPOLYLINE
  5
9D
330
72
100
AcDbEntity
  8
0
 62
     1
420
 16711680
370
    -3
100
AcDbPolyline
 90
        2
 70
     1
 43
0.025
 10
-3.184156461407484
 20
1.764041519475653
 42
1.0
 10
-3.149837883735449
 20
1.764041519475653
 42
1.0
  0
LWPOLYLINE
  5
9E
330
72
100
AcDbEntity
  8
0
 62
     1
420
 16711680
370
    -3
100
AcDbPolyline
 90
        2
 70
     1
 43
0.025
 10
-2.218882894543358
 20
1.764041519475653
 42
1.0
 10
-2.184564316871322
 20
1.764041519475653
 42
1.0
  0
LWPOLYLINE
  5
9F
330
72
100
AcDbEntity
  8
0
 62
     1
420
 16711680
370
    -3
100
AcDbPolyline
 90
        2
 70
     1
 43
0.025
 10
-1.253597666687582
 20
1.754957606979734
 42
1.0
 10
-1.219279089015547
 20
1.754957606979734
 42
1.0
  0
LWPOLYLINE
  5
A0
330
72
100
AcDbEntity
  8
0
 62
    40
420
 16760576
370
    -3
100
AcDbPolyline
 90
        2
 70
     1
 43
0.025
 10
-1.253539361729329
 20
2.764018197492352
 42
1.0
 10
-1.219220784057293
 20
2.764018197492352
 42
1.0
  0
LWPOLYLINE
  5
A1
330
72
100
AcDbEntity
  8
0
 62
    40
420
 16760576
370
    -3
100
AcDbPolyline
 90
        2
 70
     1
 43
0.025
 10
-2.218824589585104
 20
2.782197683475839
 42
1.0
 10
-2.184506011913069
 20
2.782197683475839
 42
1.0
  0
LWPOLYLINE
  5
A2
330
72
100
AcDbEntity
  8
0
 62
    40
420
 16760576
370
    -3
100
AcDbPolyline
 90
        2
 70
     1
 43
0.025
 10
-3.184156461407484
 20
2.764018197492352
 42
1.0
 10
-3.149837883735449
 20
2.764018197492352
 42
1.0
  0
LWPOLYLINE
  5
A3
330
72
100
AcDbEntity
  8
0
 62
    40
420
 16760576
370
    -3
100
AcDbPolyline
 90
        2
 70
     1
 43
0.025
 10
-4.149441689263261
 20
2.727705869491978
 42
1.0
 10
-4.115123111591225
 20
2.727705869491978
 42
1.0
  0
LWPOLYLINE
  5
A4
330
72
100
AcDbEntity
  8
0
 62
    40
420
 16760576
370
    -3
100
AcDbPolyline
 90
        2
 70
     1
 43
0.025
 10
-5.114715256127387
 20
2.727659225525375
 42
1.0
 10
-5.08039667845535
 20
2.727659225525375
 42
1.0
  0
LWPOLYLINE
  5
A5
330
72
100
AcDbEntity
  8
0
 62
    40
420
 16760576
370
    -3
100
AcDbPolyline
 90
        5
 70
     0
 43
0.025
 10
-5.097497662333115
 20
2.727705869491978
 10
-4.132212434477338
 20
2.727705869491978
 10
-3.166938867613213
 20
2.764018197492351
 10
-2.201723605707341
 20
2.782197683475839
 10
-1.236438377851564
 20
2.764018197492351
  0
LWPOLYLINE
  5
A6
330
72
100
AcDbEntity
  8
0
 62
     1
420
 16711680
370
    -3
100
AcDbPolyline
 90
        5
 70
     0
 43
0.025
 10
-5.097544306299718
 20
1.745920338450418
 10
-4.132212434477338
 20
1.745862033492165
 10
-3.166997172571466
 20
1.764041519475653
 10
-2.201723605707341
 20
1.764041519475653
 10
-1.236438377851564
 20
1.754957606979734
  0
LWPOLYLINE
  5
A7
330
72
100
AcDbEntity
  8
0
370
    -3
100
AcDbPolyline
 90
        5
 70
     0
 43
0.025
 10
-5.097401062660615
 20
1.409958588933143
 10
-4.132127495796489
 20
1.419054162420712
 10
-3.166985511579816
 20
1.427726859276952
 10
-2.20171194471569
 20
1.418642946781031
 10
-1.236438377851564
 20
1.418584641822777
  0
LWPOLYLINE
  5
A8
330
72
100
AcDbEntity
  8
0
 62
   140
420
    44271
370
    -3
100
AcDbPolyline
 90
        5
 70
     0
 43
0.025
 10
-5.097497662333115
 20
1.254992589954686
 10
-4.132270739435592
 20
1.264088163442257
 10
-3.166950528604863
 20
1.264088163442257
 10
-2.20171194471569
 20
1.264088163442257
 10
-1.236391733884961
 20
1.264088163442257
  0
MTEXT
  5
A9
330
72
100
AcDbEntity
  8
LP_Text
100
AcDbMText
 10
-3.220650299483539
 20
4.544711283015194
 30
0.0
 40
0.15
 41
0.0
 46
0.0
 71
     4
 72
     5
  1
Tan: 5 GPH (12001515)
  7
ArialNarrow
 73
     1
 44
1.0
  0
LWPOLYLINE
  5
AA
330
72
100
AcDbEntity
  8
0
 62
    40
420
 16760576
370
    -3
100
AcDbPolyline
 90
        2
 70
     0
 43
0.025
 10
-3.64117961507287
 20
4.544711283015194
 10
-3.32867961507287
 20
4.544711283015194
  0
MTEXT
  5
AB
330
72
100
AcDbEntity
  8
LP_Text
100
AcDbMText
 10
-1.231855608132828
 20
0.9958666978888262
 30
0.0
 40
0.15
 41
0.0
 46
0.0
 71
     2
 72
     5
  1
50
  7
ArialNarrow
 73
     1
 44
1.0
  0
MTEXT
  5
AC
330
72
100
AcDbEntity
  8
LP_Text
100
AcDbMText
 10
-5.232591
 20
2.759493732731869
 30
0.0
 40
0.15
 41
0.0
 46
0.0
 71
     5
 72
     5
  1
5
  7
ArialNarrow
 73
     1
 44
1.0
  0
MTEXT
  5
AD
330
72
100
AcDbEntity
  8
LP_Text
100
AcDbMText
 10
-5.232591
 20
3.095866697888825
 30
0.0
 40
0.15
 41
0.0
 46
0.0
 71
     5
 72
     5
  1
6
  7
ArialNarrow
 73
     1
 44
1.0
  0
MTEXT
  5
AE
330
72
100
AcDbEntity
  8
LP_Text
100
AcDbMText
 10
-5.232591
 20
1.750374837260996
 30
0.0
 40
0.15
 41
0.0
 46
0.0
 71
     5
 72
     5
  1
2
  7
ArialNarrow
 73
     1
 44
1.0
  0
ENDBLK
  5
AF
330
72
100
AcDbEntity
  8
0
100
AcDbBlockEnd
  0
ENDSEC
  0
SECTION
  2
ENTITIES
  0
TEXT
  5
1A
330
2
100
AcDbEntity
  8
LP_Text
100
AcDbText
 10
26.66370483147944
 20
-22.53929036062036
 30
0.0
 40
0.125
  1
 
  7
ROMANS
100
AcDbText
1001
RJP
1000
© - 20170111
  0
INSERT
  5
1E
330
2
100
AcDbEntity
  8
LP_TitleBlock
100
AcDbBlockReference
 66
     1
  2
titleblock
 10
18.0
 20
-12.0
 30
0.0
1001
RJP
1000
© - 20170111
1001
PE_URL
1000
http://www.landscapeproductsinc.com/index.htm
1002
{
1000
Landscape Products Web Page
1002
{
1071
        1
1002
}
1002
}
  0
ATTRIB
  5
35
102
{ACAD_XDICTIONARY
360
36
102
}
330
1E
100
AcDbEntity
  8
LP_TitleBlock
 62
     7
100
AcDbText
 10
17.965
 20
-11.75
 30
0.0
 40
0.085
  1
MODEL - June 20, 2017
 50
90.0
  7
Arial
100
AcDbAttribute
280
     0
  2
MOD_DATE
 70
     0
280
     1
  0
SEQEND
  5
3B
330
1E
100
AcDbEntity
  8
LP_TitleBlock
  0
MTEXT
  5
3D
102
{ACAD_XDICTIONARY
360
3E
102
}
330
2
100
AcDbEntity
  8
LP_Text
100
AcDbMText
 10
27.54452684510247
 20
-2.166256211920874
 30
0.0
 40
0.125
 41
5.130062068203942
 46
0.0
 71
     1
 72
     5
  3
\A1;\pi-0.375,l0.375,t0.375;A.^ILANDSCAPE PRODUCTS LP710 SERIES 1/2" OR LP940 3/4" PE TUBING\P\pi0,l0,tz;\P\pi-0.375,l0.375,t0.375;B.^ILANDSCAPE PRODUCTS PC EMITTER (SEE CHART BELOW FOR MODELS AVAILABLE & FLOW DATA)\P\pi0,l0,tz;\P\pi-0.375,l0.375,t0.37
  3
5;C.^IDECIDUOUS TREE\P\pi0,l0,tz;\P\pi-0.375,l0.375,t0.375;D.^ICONIFEROUS TREE\P\pi0,l0,tz;\P\pi-0.375,l0.375,t0.375;E.^ISHRUB\P\pi0,l0,tz;\P\pi-0.375,l0.375,t0.375;F.^IPERENNIAL\P\pi0,l0,tz;\P\pi-0.375,l0.375,t0.375;G.^ILANDSCAPE PRODUCTS LP SERIES 1/4" 
  1
PE TUBING
  7
ArialNarrow
 73
     1
 44
0.75
1001
RJP
1000
© - 20170111
1001
ACAD
1000
ACAD_MTEXT_COLUMN_INFO_BEGIN
1070
    75
1070
     2
1070
    79
1070
     0
1070
    76
1070
     1
1070
    78
1070
     0
1070
    48
1040
5.130062068203942
1070
    49
1040
0.625
1070
    50
1070
     1
1040
0.0
1000
ACAD_MTEXT_COLUMN_INFO_END
  0
MTEXT
  5
3F
102
{ACAD_XDICTIONARY
360
40
102
}
330
2
100
AcDbEntity
  8
LP_Text
100
AcDbMText
 10
27.54452684510247
 20
-5.20284593323452
 30
0.0
 40
0.125
 41
5.797208390177353
 46
0.0
 71
     1
 72
     5
  3
\A1;\pi-0.125,l0.125;NOTES:\P\P\pi-0.5,l0.5,t0.375;{\A0;1.^IUSE LANDSCAPE PRODUCTS KEY PUNCH TOOL (12001605) TO SIMPLIFY EMITTER INSTALLATION IN PE TUBING.\P\pi-0.125,l0.125,tz;\P\pi-0.5,l0.5,t0.375;2.^IEMITTERS SHALL BE LOCATED IMMEDIATELY ADJACENT TO
  3
 PERENNIALS AND AT THE OUTSIDE PERIMETER OF THE PLANTING PIT OF ALL SHRUBS & TREES.\P\pi-0.125,l0.125,tz;\P\pi-0.5,l0.5,t0.375;3.^ILOCATE EMITTERS ON UPHILL SIDE OF PLANT.\P\pi-0.125,l0.125,tz;\P\pi-0.5,l0.5,t0.375;4.^IREFER TO LANDSCAPE & IRRIGATION  
  1
PLANS FOR EMITTER                      QUANTITY AND DISCHARGE RATE AT EACH PLANT TYPE BASED ON RELATIVE PLANT WATER REQUIREMENTS.}
  7
ArialNarrow
 73
     1
 44
0.75
1001
RJP
1000
© - 20170111
  0
INSERT
  5
41
102
{ACAD_XDICTIONARY
360
42
102
}
330
2
100
AcDbEntity
  8
LP_TitleBlock
100
AcDbBlockReference
 66
     1
  2
*U7
 10
18.0
 20
-12.0
 30
0.0
 41
0.75
 42
0.75
 43
0.75
1001
RJP
1000
© - 20170111
1001
PE_URL
1000
http://www.landscapeproductsinc.com/index.htm
1002
{
1000
Landscape Products Web Page
1002
{
1071
        1
1002
}
1002
}
  0
ATTRIB
  5
6C
330
41
100
AcDbEntity
  8
0
100
AcDbText
 10
18.562428711663
 20
-11.63564289590602
 30
0.0
 40
0.375
  1

  7
ArialNarrow
 72
     1
 11
18.562428711663
 21
-11.44814289590602
 31
0.0
100
AcDbAttribute
280
     0
  2
#
 70
     0
 74
     2
280
     1
1001
AcDbBlockRepETag
1070
     1
1071
        0
1005
0
  0
ATTRIB
  5
6D
102
{ACAD_XDICTIONARY
360
6E
102
}
330
41
100
AcDbEntity
  8
0
100
AcDbText
 10
18.88937624148572
 20
-11.41064289590602
 30
0.0
 40
0.1875
  1
EMITTER PLACEMENT (TREES AND SHRUBS ON SAME CONTROL ZONE)
 41
0.85
  7
ArialNarrow
 11
18.88937624148572
 21
-11.31689289590602
 31
0.0
100
AcDbAttribute
280
     0
  2
NAME1
 70
     0
 74
     2
280
     1
1001
AcDbBlockRepETag
1070
     1
1071
        1
1005
0
  0
ATTRIB
  5
6F
330
41
100
AcDbEntity
  8
0
100
AcDbText
 10
18.88937624148572
 20
-11.61689289590602
 30
0.0
 40
0.1125
  1
NOT TO SCALE
  7
ArialNarrow
 11
18.88937624148572
 21
-11.56064289590602
 31
0.0
100
AcDbAttribute
280
     0
  2
NAME2
 70
     0
 74
     2
280
     1
1001
AcDbBlockRepETag
1070
     1
1071
        2
1005
0
  0
SEQEND
  5
70
330
41
100
AcDbEntity
  8
LP_TitleBlock
  0
INSERT
  5
71
330
2
100
AcDbEntity
  8
0
100
AcDbBlockReference
  2
PC_FlowChart
 10
34.75
 20
-12.25
 30
0.0
1001
RJP
1000
© - 20170111
  0
INSERT
  5
B0
330
2
100
AcDbEntity
  8
LP_Detail
 62
     8
100
AcDbBlockReference
  2
Juniper
 10
23.34920077556287
 20
-5.675151617920203
 30
0.0
 41
0.14
 42
0.14
 43
0.14
1001
RJP
1000
© - 20170111
  0
INSERT
  5
CF
330
2
100
AcDbEntity
  8
LP_Detail
 62
     8
100
AcDbBlockReference
  2
Shrub2
 10
25.53377312741837
 20
-8.516025177321271
 30
0.0
 41
0.9256583290687457
 42
0.9256583290687457
 43
0.9256583290687457
 50
0.0318838498934329
1001
RJP
1000
© - 20170111
  0
INSERT
  5
D8
330
2
100
AcDbEntity
  8
LP_Detail
 62
     8
100
AcDbBlockReference
  2
Pine
 10
21.50981390188273
 20
-3.888780304679881
 30
0.0
 41
0.15
 42
0.15
 43
0.15
1001
RJP
1000
© - 20170111
  0
INSERT
  5
F0
330
2
100
AcDbEntity
  8
LP_Detail
 62
     8
100
AcDbBlockReference
  2
Shrub2
 10
25.38732309078713
 20
-8.075937312575558
 30
0.0
 41
0.9256583290687457
 42
0.9256583290687457
 43
0.9256583290687457
 50
0.0318838498934329
1001
RJP
1000
© - 20170111
  0
INSERT
  5
F1
330
2
100
AcDbEntity
  8
LP_Detail
 62
     8
100
AcDbBlockReference
  2
Shrub2
 10
25.78143646887921
 20
-7.858543858942891
 30
0.0
 41
0.9256583290687457
 42
0.9256583290687457
 43
0.9256583290687457
 50
0.0318838498934329
1001
RJP
1000
© - 20170111
  0
INSERT
  5
F2
330
2
100
AcDbEntity
  8
LP_Detail
 62
     8
100
AcDbBlockReference
  2
Shrub3
 10
24.71702780002281
 20
-6.210390567005892
 30
0.0
 41
0.5214153557791508
 42
0.5214153557791508
 43
0.5214153557791508
 50
0.0318838498934329
1001
RJP
1000
© - 20170111
  0
INSERT
  5
101
330
2
100
AcDbEntity
  8
LP_Detail
 62
     8
100
AcDbBlockReference
  2
Shrub3
 10
24.98665982723661
 20
-7.108893649239733
 30
0.0
 41
0.3403053368618745
 42
0.3403053368618745
 43
0.3403053368618745
 50
0.0318838498934329
1001
RJP
1000
© - 20170111
  0
LWPOLYLINE
  5
102
330
2
100
AcDbEntity
  8
LP_Detail
100
AcDbPolyline
 90
        9
 70
   128
 43
0.0
 10
19.20459852448887
 20
-2.336321623327823
 42
0.0054509192767608
 10
20.81428570770334
 20
-4.207467648173466
 42
0.3180255546350563
 10
21.95372688437216
 20
-4.478648273919507
 42
-0.2576428470538547
 10
22.9846502737703
 20
-4.605199135000308
 42
-0.1691376755119159
 10
23.73523463248627
 20
-5.680882186192267
 42
0.231614925723209
 10
24.34112804274822
 20
-6.358833587889566
 42
-0.1393402128788586
 10
25.41726712029982
 20
-7.19949333250091
 42
-0.5294746103255891
 10
24.82946012100167
 20
-8.844655502558172
 42
0.1883400046472955
 10
23.97940050198504
 20
-9.459331555049008
 42
3.068005611024715
1001
RJP
1000
© - 20170111
  0
LWPOLYLINE
  5
103
330
2
100
AcDbEntity
  8
LP_Detail
100
AcDbPolyline
 90
        3
 70
     0
 43
0.0
 10
19.14721233728565
 20
-2.384610602590977
 42
-0.75
 10
19.20459852448887
 20
-2.336321623327823
 42
0.75
 10
19.26198471169209
 20
-2.288032644064668
 42
0.75
1001
RJP
1000
© - 20170111
  0
LWPOLYLINE
  5
104
330
2
100
AcDbEntity
  8
LP_Detail
100
AcDbPolyline
 90
        3
 70
     0
 43
0.0
 10
24.04244504317441
 20
-9.499956495987071
 42
-0.75
 10
23.97940050198504
 20
-9.459331555049008
 42
0.75
 10
23.91635596079566
 20
-9.418706614110945
 42
0.75
1001
RJP
1000
© - 20170111
  0
LWPOLYLINE
  5
105
330
2
100
AcDbEntity
  8
LP_Detail
100
AcDbPolyline
 90
        2
 70
   129
 43
0.049010347790623
 10
20.97403986349798
 20
-4.376655693462037
 42
1.0
 10
21.03798628558596
 20
-4.376655693462037
 42
1.0
1001
RJP
1000
© - 20170111
  0
LWPOLYLINE
  5
106
330
2
100
AcDbEntity
  8
LP_Detail
100
AcDbPolyline
 90
        2
 70
   129
 43
0.049010347790623
 10
21.23515957699386
 20
-4.503720035452806
 42
1.0
 10
21.29910599908183
 20
-4.503720035452806
 42
1.0
1001
RJP
1000
© - 20170111
  0
LWPOLYLINE
  5
107
330
2
100
AcDbEntity
  8
LP_Detail
100
AcDbPolyline
 90
        2
 70
   129
 43
0.049010347790623
 10
21.59542667205458
 20
-4.550468774611945
 42
1.0
 10
21.65937309414256
 20
-4.550468774611945
 42
1.0
1001
RJP
1000
© - 20170111
  0
LWPOLYLINE
  5
108
330
2
100
AcDbEntity
  8
LP_Detail
100
AcDbPolyline
 90
        2
 70
   129
 43
0.049010347790623
 10
21.894928606599
 20
-4.488990903322095
 42
1.0
 10
21.95887502868697
 20
-4.488990903322095
 42
1.0
1001
RJP
1000
© - 20170111
  0
LWPOLYLINE
  5
109
330
2
100
AcDbEntity
  8
LP_Detail
100
AcDbPolyline
 90
        2
 70
   129
 43
0.049010347790623
 10
23.56562112567868
 20
-5.325764751805559
 42
1.0
 10
23.62956754776665
 20
-5.325764751805559
 42
1.0
1001
RJP
1000
© - 20170111
  0
LWPOLYLINE
  5
10A
330
2
100
AcDbEntity
  8
LP_Detail
100
AcDbPolyline
 90
        2
 70
   129
 43
0.049010347790623
 10
23.65972180607889
 20
-5.544926081067087
 42
1.0
 10
23.72366822816686
 20
-5.544926081067087
 42
1.0
1001
RJP
1000
© - 20170111
  0
LWPOLYLINE
  5
10B
330
2
100
AcDbEntity
  8
LP_Detail
100
AcDbPolyline
 90
        2
 70
   129
 43
0.049010347790623
 10
23.73215314236608
 20
-5.768439878868672
 42
1.0
 10
23.79609956445405
 20
-5.768439878868672
 42
1.0
1001
RJP
1000
© - 20170111
  0
LWPOLYLINE
  5
10C
330
2
100
AcDbEntity
  8
LP_Detail
100
AcDbPolyline
 90
        2
 70
   129
 43
0.049010347790623
 10
24.4495373405456
 20
-6.421020886249511
 42
1.0
 10
24.51348376263357
 20
-6.421020886249511
 42
1.0
1001
RJP
1000
© - 20170111
  0
LWPOLYLINE
  5
10D
330
2
100
AcDbEntity
  8
LP_Detail
100
AcDbPolyline
 90
        2
 70
   129
 43
0.049010347790623
 10
24.69705243773383
 20
-6.557648245715926
 42
1.0
 10
24.7609988598218
 20
-6.557648245715926
 42
1.0
1001
RJP
1000
© - 20170111
  0
LWPOLYLINE
  5
10E
330
2
100
AcDbEntity
  8
LP_Detail
100
AcDbPolyline
 90
        2
 70
   129
 43
0.049010347790623
 10
25.04836427908311
 20
-6.845252881675948
 42
1.0
 10
25.11231070117108
 20
-6.845252881675948
 42
1.0
1001
RJP
1000
© - 20170111
  0
LWPOLYLINE
  5
10F
330
2
100
AcDbEntity
  8
LP_Detail
100
AcDbPolyline
 90
        2
 70
   129
 43
0.049010347790623
 10
25.19555444616078
 20
-6.969794628270918
 42
1.0
 10
25.25950086824875
 20
-6.969794628270918
 42
1.0
1001
RJP
1000
© - 20170111
  0
LWPOLYLINE
  5
110
330
2
100
AcDbEntity
  8
LP_Detail
100
AcDbPolyline
 90
        2
 70
   129
 43
0.049010347790623
 10
25.58849964527666
 20
-7.819992199209308
 42
1.0
 10
25.65244606736463
 20
-7.819992199209308
 42
1.0
1001
RJP
1000
© - 20170111
  0
LWPOLYLINE
  5
111
330
2
100
AcDbEntity
  8
LP_Detail
100
AcDbPolyline
 90
        2
 70
   129
 43
0.049010347790623
 10
25.5304633491435
 20
-8.167629064623605
 42
1.0
 10
25.59440977123147
 20
-8.167629064623605
 42
1.0
1001
RJP
1000
© - 20170111
  0
LWPOLYLINE
  5
112
330
2
100
AcDbEntity
  8
LP_Detail
100
AcDbPolyline
 90
        2
 70
   129
 43
0.049010347790623
 10
25.36599244410002
 20
-8.470790809278472
 42
1.0
 10
25.429938866188
 20
-8.470790809278472
 42
1.0
1001
RJP
1000
© - 20170111
  0
MULTILEADER
  5
113
102
{ACAD_XDICTIONARY
360
200
102
}
330
2
100
AcDbEntity
  8
LP_Mleader
160
              1988
310
C4070000420000000C00000016000000000000C00C00000033000000000000000C00000013000000993A00000C00000016000000000000C20C00000014000000010000006C0000000700000004000000562C30B9CD5D3740446FA4BB4BC710C00000000000000000157DECB1B5953740446FA4BB4BC710C000000000000000
310
00157DECB1B5953740446FA4BB4BC711C00000000000000000562C30B9CD5D3740446FA4BB4BC711C000000000000000000C00000016000000000000C00C0000001400000001000000B400000026000000562C30B9CD6D3740446FA4BB4B8711C0000000000000000000000000000000000000000000000000000000000000
310
F03F000000000000F03F00000000000000000000000000000000410000000100000001000000000000000000C03F9A9999999999E93F0000000000000000000000000000F03F00000000000000000000000000000000000000000000000000000000010000002200000041007200690061006C00000000000000000000000C
310
00000033000000000000000C00000010000000040000000C00000016000000000000C00C00000012000000FF7F00000C0000001300000001000000880000001D0000005E7A98CE68D4B5BFEEB7CEC1DE65B73F000000000000000079DEFC85880B3740EEB7CEC1DE65B7BF5E7A98CE68D4B5BF000000000000000014561852
310
4C9A12C000000000000000000000000000000000000000000000C03F0000000000000000000000000000000000000000000000000000000000000000000000000000F03F0C00000016000000010000C30C00000017000000FDFFFFFF0C0000001400000002000000100000001900000000000000000000004C000000210000
310
003D0000004509A9999999999993F4090200000000000000000000000000000000C040000000003C2FF402F6A7952C4D63F3657E861F3A4F02FCD95FA187CE93C0BF5361740C000000120000000000000064000000040000000C5F8D3FE66BC63FBDBED8444D9B004000000000000000006D1DC84269AA0040000000000000
310
00000000000000000000000000000000F03FE2ABF1C77CCDF2BFAAF156EB8585FBBF0000000000000000B054C1C8507CE03F000000000C00000016000000010000C30C00000017000000FDFFFFFF0C000000140000000200000010000000190000000000000000000000460000002100000037000000080050240800000000
310
000000000000000000000003000000000000E0BF226A666666666724FC9A9999999999993F26A666666666664FFF0000000C0000001200000000000000540000002000000002000000000000000000000000000000000000000000000000000000000000000000E0BF00000000000000000000000000000000000000000000
310
00000000000000000000000000000000F03F0C00000016000000010000C30C00000017000000FDFFFFFF0C0000001400000002000000100000001900000000000000000000004C000000210000003D0000004509A9999999999993F4090200000000000000000000000000000000C040000000003C2FF402F6A7952C4D6BF3
310
657E861F3A4F00FCD95FA187CE93C03F0000000C000000120000000000000064000000040000000C5F8D3FE66BC63FBDBED8444D9B00C000000000000000006D1DC84269AA004000000000000000000000000000000000000000000000F03F0C5F8D3FE66BC6BFBDBED8444D9B00400000000000000000B854C1C8507CE03F
310
000000000C00000016000000010000C30C00000017000000FDFFFFFF0C0000001400000002000000100000001900000000000000000000004E000000210000003F0000000800502408000000000003C2FC00000000020244F3000000000000E0BFC000000000000000226A666666666724FC9A9999999999993F26A6666666
310
66664FFF743A530C0000001200000000000000540000002000000002000000000000000000F0BF000000000080913C0000000000000000000000000000E0BF0000000000000000000000000000000000000000000000000000000000000000000000000000F03F080000001F0000000C00000016000000000000C00C000000
310
12000000FF7F00000C00000033000000000000000C00000013000000891300003C0000000600000002000000F376CBEE5C213740341B11D7B43C12C0000000000000000023F9FC859A5A3740446FA4BB4B4711C000000000000000000C00000013000000112700003C000000060000000200000023F9FC859A5A3740446FA4
310
BB4B4711C00000000000000000F0C5C95267673740446FA4BB4B4711C000000000000000000C00000016000000000000C00C00000012000000FF7F00000C00000017000000000000000C000000130000009A3A00000C00000016000000000000C00C00000012000000FF7F00000C00000017000000FFFFFFFF0C0000003300
310
0000000000000C00000033000000000000000C00000010000000040000000C00000016000000000000C0840000000600000005000000F0C5C95267673740AAD50A22B2ED10C000000000000000007CE352181C8C3740AAD50A22B2ED10C000000000000000007CE352181C8C3740DD083E55E5A011C00000000000000000F0
310
C5C95267673740DD083E55E5A011C00000000000000000F0C5C95267673740AAD50A22B2ED10C000000000000000000C0000000E000000000100000C00000017000000FFFFFFFF0C0000003300000000000000
100
AcDbMLeader
270
     2
300
CONTEXT_DATA{
 40
1.0
 10
23.40392033983329
 20
-4.31962483588342
 30
0.0
 41
0.125
140
0.125
145
0.025
174
     1
175
     1
176
     0
177
     0
290
     1
304
A
 11
0.0
 21
0.0
 31
1.0
340
32
 12
23.42892033983329
 22
-4.25712483588342
 32
0.0
 13
1.0
 23
0.0
 33
0.0
 42
0.0
 43
0.0
 44
0.0
 45
1.0
170
     1
 90
-1073741824
171
     1
172
     5
 91
-1027028792
141
1.5
 92
        0
291
     1
292
     1
173
     0
293
     0
142
0.0
143
0.0
294
     0
295
     0
296
     0
110
23.24851168677199
120
-5.700015163986048
130
0.0
111
1.0
121
0.0
131
0.0
112
0.0
122
1.0
132
0.0
297
     0
302
LEADER{
290
     1
291
     1
 10
23.35392033983329
 20
-4.31962483588342
 30
0.0
 11
1.0
 21
0.0
 31
0.0
 90
        0
 40
0.05
304
LEADER_LINE{
 10
23.04505193160592
 20
-4.650681765303961
 30
0.0
 91
        0
305
}
271
     0
303
}
272
     9
273
     9
301
}
340
115
 90
   410784
170
     1
 91
-1073741824
171
    -2
290
     1
291
     1
 41
0.05
342
117
 42
0.125
172
     2
343
32
173
     1
 95
        1
174
     0
175
     0
 92
-1073741824
292
     1
 93
-1073741824
 10
1.0
 20
1.0
 30
1.0
 43
0.0
176
     0
293
     0
294
     0
178
     0
179
     1
 45
1.0
271
     0
272
     9
273
     9
1001
RJP
1000
© - 20170111
  0
MULTILEADER
  5
120
102
{ACAD_XDICTIONARY
360
204
102
}
330
2
100
AcDbEntity
  8
LP_Mleader
160
              1988
310
C4070000420000000C00000016000000000000C00C00000033000000000000000C00000013000000993A00000C00000016000000000000C20C00000014000000010000006C0000000700000004000000B896651819933940A09A440499FA19C00000000000000000A5A6C1D26DC63940A09A440499FA19C000000000000000
310
00A5A6C1D26DC63940A09A440499FA1AC00000000000000000B896651819933940A09A440499FA1AC000000000000000000C00000016000000000000C00C0000001400000001000000B400000026000000345834897AA03940A09A440499BA1AC0000000000000000000000000000000000000000000000000000000000000
310
F03F000000000000F03F00000000000000000000000000000000420000000100000001000000000000000000C03F9A9999999999E93F0000000000000000000000000000F03F00000000000000000000000000000000000000000000000000000000010000002200000041007200690061006C00000000000000000000000C
310
00000033000000000000000C00000010000000040000000C00000016000000000000C00C00000012000000FF7F00000C0000001300000001000000880000001D0000005E7A98CE68D4B5BFEEB7CEC1DE65B73F0000000000000000DB4832E5D3403940EEB7CEC1DE65B7BF5E7A98CE68D4B5BF00000000000000007081B89A
310
99CD1BC000000000000000000000000000000000000000000000C03F0000000000000000000000000000000000000000000000000000000000000000000000000000F03F0C00000016000000010000C30C00000017000000FDFFFFFF0C0000001400000002000000100000001900000000000000000000004C000000210000
310
003D0000004509A9999999999993F4090200000000000000000000000000000000C040000000003C2FF402F6A7952C4D63F3657E861F3A4F02FCD95FA187CE93C0BF5361740C000000120000000000000064000000040000000C5F8D3FE66BC63FBDBED8444D9B004000000000000000006D1DC84269AA0040000000000000
310
00000000000000000000000000000000F03FE2ABF1C77CCDF2BFAAF156EB8585FBBF0000000000000000B054C1C8507CE03F000000000C00000016000000010000C30C00000017000000FDFFFFFF0C000000140000000200000010000000190000000000000000000000460000002100000037000000080050240800000000
310
000000000000000000000003000000000000E0BF226A666666666724FC9A9999999999993F26A666666666664FFF0000000C0000001200000000000000540000002000000002000000000000000000000000000000000000000000000000000000000000000000E0BF00000000000000000000000000000000000000000000
310
00000000000000000000000000000000F03F0C00000016000000010000C30C00000017000000FDFFFFFF0C0000001400000002000000100000001900000000000000000000004C000000210000003D0000004509A9999999999993F4090200000000000000000000000000000000C040000000003C2FF402F6A7952C4D6BF3
310
657E861F3A4F00FCD95FA187CE93C03F0000000C000000120000000000000064000000040000000C5F8D3FE66BC63FBDBED8444D9B00C000000000000000006D1DC84269AA004000000000000000000000000000000000000000000000F03F0C5F8D3FE66BC6BFBDBED8444D9B00400000000000000000B854C1C8507CE03F
310
000000000C00000016000000010000C30C00000017000000FDFFFFFF0C0000001400000002000000100000001900000000000000000000004E000000210000003F0000000800502408000000000003C2FC00000000020244F3000000000000E0BFC000000000000000226A666666666724FC9A9999999999993F26A6666666
310
66664FFF743A530C0000001200000000000000540000002000000002000000000000000000F0BF000000000080913C0000000000000000000000000000E0BF0000000000000000000000000000000000000000000000000000000000000000000000000000F03F080000001F0000000C00000016000000000000C00C000000
310
12000000FF7F00000C00000033000000000000000C00000013000000891300003C000000060000000200000055E1004EA85639409046B11F02701BC00000000000000000856332E5E58F3940A09A4404997A1AC000000000000000000C00000013000000112700003C0000000600000002000000856332E5E58F3940A09A44
310
04997A1AC000000000000000005230FFB1B29C3940A09A4404997A1AC000000000000000000C00000016000000000000C00C00000012000000FF7F00000C00000017000000000000000C000000130000009A3A00000C00000016000000000000C00C00000012000000FF7F00000C00000017000000FFFFFFFF0C0000003300
310
0000000000000C00000033000000000000000C00000010000000040000000C00000016000000000000C08400000006000000050000005230FFB1B29C39400601AB6AFF201AC000000000000000000C0D2839D4BC39400601AB6AFF201AC000000000000000000C0D2839D4BC39403934DE9D32D41AC0000000000000000052
310
30FFB1B29C39403934DE9D32D41AC000000000000000005230FFB1B29C39400601AB6AFF201AC000000000000000000C0000000E000000000100000C00000017000000FFFFFFFF0C0000003300000000000000
100
AcDbMLeader
270
     2
300
CONTEXT_DATA{
 40
1.0
 10
25.61210167389101
 20
-6.619724337279563
 30
0.0
 41
0.125
140
0.125
145
0.025
174
     1
175
     1
176
     0
177
     0
290
     1
304
B
 11
0.0
 21
0.0
 31
1.0
340
32
 12
25.63710167389101
 22
-6.557224337279563
 32
0.0
 13
1.0
 23
0.0
 33
0.0
 42
0.0
 43
0.0
 44
0.0
 45
1.0
170
     1
 90
-1073741824
171
     1
172
     5
 91
-1027028792
141
1.5
 92
        0
291
     1
292
     1
173
     0
293
     0
142
0.0
143
0.0
294
     0
295
     0
296
     0
110
25.4566930208297
120
-8.000114665382191
130
0.0
111
1.0
121
0.0
131
0.0
112
0.0
122
1.0
132
0.0
297
     0
302
LEADER{
290
     1
291
     1
 10
25.56210167389101
 20
-6.619724337279563
 30
0.0
 11
1.0
 21
0.0
 31
0.0
 90
        0
 40
0.05
304
LEADER_LINE{
 10
25.25323326566363
 20
-6.950781266700104
 30
0.0
 91
        0
305
}
271
     0
303
}
272
     9
273
     9
301
}
340
115
 90
   410784
170
     1
 91
-1073741824
171
    -2
290
     1
291
     1
 41
0.05
342
117
 42
0.125
172
     2
343
32
173
     1
 95
        1
174
     0
175
     0
 92
-1073741824
292
     1
 93
-1073741824
 10
1.0
 20
1.0
 30
1.0
 43
0.0
176
     0
293
     0
294
     0
178
     0
179
     1
 45
1.0
271
     0
272
     9
273
     9
1001
RJP
1000
© - 20170111
  0
MULTILEADER
  5
121
102
{ACAD_XDICTIONARY
360
206
102
}
330
2
100
AcDbEntity
  8
LP_Mleader
160
              1988
310
C4070000420000000C00000016000000000000C00C00000033000000000000000C00000013000000993A00000C00000016000000000000C20C00000014000000010000006C0000000700000004000000F8E41F17A3733640811301DB9CDC01C00000000000000000C9481BB944AA3640811301DB9CDC01C000000000000000
310
00C9481BB944AA36403939A50D58E503C00000000000000000F8E41F17A37336403939A50D58E503C000000000000000000C00000016000000000000C00C0000001400000001000000B4000000260000004C5E271CDB8136405D265374FA6003C0000000000000000000000000000000000000000000000000000000000000
310
F03F000000000000F03F00000000000000000000000000000000430000000100000001000000000000000000C03F9A9999999999E93F0000000000000000000000000000F03F00000000000000000000000000000000000000000000000000000000010000002200000041007200690061006C00000000000000000000000C
310
00000033000000000000000C00000010000000040000000C00000016000000000000C00C00000012000000FF7F00000C0000001300000001000000880000001D0000005E7A98CE68D4B5BFEEB7CEC1DE65B73F00000000000000001B97ECE35D213640EEB7CEC1DE65B7BF5E7A98CE68D4B5BF00000000000000008FEA91D4
310
CC8405C000000000000000000000000000000000000000000000C03F0000000000000000000000000000000000000000000000000000000000000000000000000000F03F0C00000016000000010000C30C00000017000000FDFFFFFF0C0000001400000002000000100000001900000000000000000000004C000000210000
310
003D0000004509A9999999999993F4090200000000000000000000000000000000C040000000003C2FF402F6A7952C4D63F3657E861F3A4F02FCD95FA187CE93C0BF0000000C000000120000000000000064000000040000000C5F8D3FE66BC63FBDBED8444D9B004000000000000000006D1DC84269AA0040000000000000
310
00000000000000000000000000000000F03FE2ABF1C77CCDF2BFAAF156EB8585FBBF0000000000000000B054C1C8507CE03F000000000C00000016000000010000C30C00000017000000FDFFFFFF0C000000140000000200000010000000190000000000000000000000460000002100000037000000080050240800000000
310
000000000000000000000003000000000000E0BF226A666666666724FC9A9999999999993F26A666666666664FFF0000000C0000001200000000000000540000002000000002000000000000000000000000000000000000000000000000000000000000000000E0BF00000000000000000000000000000000000000000000
310
00000000000000000000000000000000F03F0C00000016000000010000C30C00000017000000FDFFFFFF0C0000001400000002000000100000001900000000000000000000004C000000210000003D0000004509A9999999999993F4090200000000000000000000000000000000C040000000003C2FF402F6A7952C4D6BF3
310
657E861F3A4F00FCD95FA187CE93C03F5361740C000000120000000000000064000000040000000C5F8D3FE66BC63FBDBED8444D9B00C000000000000000006D1DC84269AA004000000000000000000000000000000000000000000000F03F0C5F8D3FE66BC6BFBDBED8444D9B00400000000000000000B854C1C8507CE03F
310
000000000C00000016000000010000C30C00000017000000FDFFFFFF0C0000001400000002000000100000001900000000000000000000004E000000210000003F0000000800502408000000000003C2FC00000000020244F3000000000000E0BFC000000000000000226A666666666724FC9A9999999999993F26A6666666
310
66664FFF743A530C0000001200000000000000540000002000000002000000000000000000F0BF000000000080913C0000000000000000000000000000E0BF0000000000000000000000000000000000000000000000000000000000000000000000000000F03F080000001F0000000C00000016000000000000C00C000000
310
12000000FF7F00000C00000033000000000000000C00000013000000891300003C0000000600000002000000952FBB4C32373640CF7483DE9DC904C00000000000000000C5B1ECE36F703640EF1CAAA7CBDE02C000000000000000000C00000013000000112700003C0000000600000002000000C5B1ECE36F703640EF1CAA
310
A7CBDE02C00000000000000000927EB9B03C7D3640EF1CAAA7CBDE02C000000000000000000C00000016000000000000C00C00000012000000FF7F00000C00000017000000000000000C000000130000009A3A00000C00000016000000000000C00C00000012000000FF7F00000C00000017000000FFFFFFFF0C0000003300
310
0000000000000C00000033000000000000000C00000010000000040000000C00000016000000000000C0840000000600000005000000927EB9B03C7D36404EE0CDA7692902C0000000000000000030AF811FABA036404EE0CDA7692902C0000000000000000030AF811FABA036406C6CD8408B9803C0000000000000000092
310
7EB9B03C7D36406C6CD8408B9803C00000000000000000927EB9B03C7D36404EE0CDA7692902C000000000000000000C0000000E000000000100000C00000017000000FFFFFFFF0C0000003300000000000000
100
AcDbMLeader
270
     2
300
CONTEXT_DATA{
 40
1.0
 10
22.48920731095001
 20
-2.358786878470361
 30
0.0
 41
0.125
140
0.125
145
0.025
174
     1
175
     1
176
     0
177
     0
290
     1
304
C
 11
0.0
 21
0.0
 31
1.0
340
32
 12
22.51420731095001
 22
-2.29522105309519
 32
0.0
 13
1.0
 23
0.0
 33
0.0
 42
0.0
 43
0.0
 44
0.0
 45
1.0
170
     1
 90
-1073741824
171
     1
172
     5
 91
-1027028792
141
1.5
 92
        0
291
     1
292
     1
173
     0
293
     0
142
0.0
143
0.0
294
     0
295
     0
296
     0
110
22.33379865788871
120
-3.739177206572989
130
0.0
111
1.0
121
0.0
131
0.0
112
0.0
122
1.0
132
0.0
297
     0
302
LEADER{
290
     1
291
     1
 10
22.43920731095002
 20
-2.358786878470361
 30
0.0
 11
1.0
 21
0.0
 31
0.0
 90
        0
 40
0.05
304
LEADER_LINE{
 10
22.13033890272264
 20
-2.689843807890901
 30
0.0
 91
        0
305
}
271
     0
303
}
272
     9
273
     9
301
}
340
115
 90
   410784
170
     1
 91
-1073741824
171
    -2
290
     1
291
     1
 41
0.05
342
117
 42
0.125
172
     2
343
32
173
     1
 95
        1
174
     0
175
     0
 92
-1073741824
292
     1
 93
-1073741824
 10
1.0
 20
1.0
 30
1.0
 43
0.0
176
     0
293
     0
294
     0
178
     0
179
     1
 45
1.0
271
     0
272
     9
273
     9
1001
RJP
1000
© - 20170111
  0
MULTILEADER
  5
122
102
{ACAD_XDICTIONARY
360
208
102
}
330
2
100
AcDbEntity
  8
LP_Mleader
160
              1988
310
C4070000420000000C00000016000000000000C00C00000033000000000000000C00000013000000993A00000C00000016000000000000C20C00000014000000010000006C0000000700000004000000A86B0CDE2E5A3840207627F1DAD512C00000000000000000BE8DA4FC588F3840207627F1DAD512C000000000000000
310
00BE8DA4FC588F3840207627F1DAD513C00000000000000000A86B0CDE2E5A3840207627F1DAD513C000000000000000000C00000016000000000000C00C0000001400000001000000B400000026000000D5637C8B6C673840207627F1DA9513C0000000000000000000000000000000000000000000000000000000000000
310
F03F000000000000F03F00000000000000000000000000000000440000000100000001000000000000000000C03F9A9999999999E93F0000000000000000000000000000F03F00000000000000000000000000000000000000000000000000000000010000002200000041007200690061006C00000000000000000046000C
310
00000033000000000000000C00000010000000040000000C00000016000000000000C00C00000012000000FF7F00000C0000001300000001000000880000001D0000005E7A98CE68D4B5BFEEB7CEC1DE65B73F0000000000000000CB1DD9AAE9073840EEB7CEC1DE65B7BF5E7A98CE68D4B5BF0000000000000000F05C9B87
310
DBA814C000000000000000000000000000000000000000000000C03F0000000000000000000000000000000000000000000000000000000000000000000000000000F03F0C00000016000000010000C30C00000017000000FDFFFFFF0C0000001400000002000000100000001900000000000000000000004C000000210000
310
003D0000004509A9999999999993F4090200000000000000000000000000000000C040000000003C2FF402F6A7952C4D63F3657E861F3A4F02FCD95FA187CE93C0BF0000000C000000120000000000000064000000040000000C5F8D3FE66BC63FBDBED8444D9B004000000000000000006D1DC84269AA0040000000000000
310
00000000000000000000000000000000F03FE2ABF1C77CCDF2BFAAF156EB8585FBBF0000000000000000B054C1C8507CE03F000000000C00000016000000010000C30C00000017000000FDFFFFFF0C000000140000000200000010000000190000000000000000000000460000002100000037000000080050240800000000
310
000000000000000000000003000000000000E0BF226A666666666724FC9A9999999999993F26A666666666664FFF0064020C0000001200000000000000540000002000000002000000000000000000000000000000000000000000000000000000000000000000E0BF00000000000000000000000000000000000000000000
310
00000000000000000000000000000000F03F0C00000016000000010000C30C00000017000000FDFFFFFF0C0000001400000002000000100000001900000000000000000000004C000000210000003D0000004509A9999999999993F4090200000000000000000000000000000000C040000000003C2FF402F6A7952C4D6BF3
310
657E861F3A4F00FCD95FA187CE93C03F5361740C000000120000000000000064000000040000000C5F8D3FE66BC63FBDBED8444D9B00C000000000000000006D1DC84269AA004000000000000000000000000000000000000000000000F03F0C5F8D3FE66BC6BFBDBED8444D9B00400000000000000000B854C1C8507CE03F
310
000000000C00000016000000010000C30C00000017000000FDFFFFFF0C0000001400000002000000100000001900000000000000000000004E000000210000003F0000000800502408000000000003C2FC00000000020244F3000000000000E0BFC000000000000000226A666666666724FC9A9999999999993F26A6666666
310
66664FFF0000000C0000001200000000000000540000002000000002000000000000000000F0BF000000000080913C0000000000000000000000000000E0BF0000000000000000000000000000000000000000000000000000000000000000000000000000F03F080000001F0000000C00000016000000000000C00C000000
310
12000000FF7F00000C00000033000000000000000C00000013000000891300003C000000060000000200000045B6A713BE1D38401022940C444B14C000000000000000007538D9AAFB563840207627F1DA5513C000000000000000000C00000013000000112700003C00000006000000020000007538D9AAFB563840207627
310
F1DA5513C000000000000000004205A677C8633840207627F1DA5513C000000000000000000C00000016000000000000C00C00000012000000FF7F00000C00000017000000000000000C000000130000009A3A00000C00000016000000000000C00C00000012000000FF7F00000C00000017000000FFFFFFFF0C0000003300
310
0000000000000C00000033000000000000000C00000010000000040000000C00000016000000000000C08400000006000000050000004205A677C863384086DC8D5741FC12C0000000000000000025F40A63BF85384086DC8D5741FC12C0000000000000000025F40A63BF853840B90FC18A74AF13C0000000000000000042
310
05A677C8633840B90FC18A74AF13C000000000000000004205A677C863384086DC8D5741FC12C000000000000000000C0000000E000000000100000C00000017000000FFFFFFFF0C0000003300000000000000
100
AcDbMLeader
270
     2
300
CONTEXT_DATA{
 40
1.0
 10
24.3897776394199
 20
-4.833843009980711
 30
0.0
 41
0.125
140
0.125
145
0.025
174
     1
175
     1
176
     0
177
     0
290
     1
304
D
 11
0.0
 21
0.0
 31
1.0
340
32
 12
24.4147776394199
 22
-4.771343009980711
 32
0.0
 13
1.0
 23
0.0
 33
0.0
 42
0.0
 43
0.0
 44
0.0
 45
1.0
170
     1
 90
-1073741824
171
     1
172
     5
 91
-1027028792
141
1.5
 92
        0
291
     1
292
     1
173
     0
293
     0
142
0.0
143
0.0
294
     0
295
     0
296
     0
110
24.23436898635859
120
-6.214233338083339
130
0.0
111
1.0
121
0.0
131
0.0
112
0.0
122
1.0
132
0.0
297
     0
302
LEADER{
290
     1
291
     1
 10
24.3397776394199
 20
-4.833843009980711
 30
0.0
 11
1.0
 21
0.0
 31
0.0
 90
        0
 40
0.05
304
LEADER_LINE{
 10
24.03090923119252
 20
-5.164899939401252
 30
0.0
 91
        0
305
}
271
     0
303
}
272
     9
273
     9
301
}
340
115
 90
   410784
170
     1
 91
-1073741824
171
    -2
290
     1
291
     1
 41
0.05
342
117
 42
0.125
172
     2
343
32
173
     1
 95
        1
174
     0
175
     0
 92
-1073741824
292
     1
 93
-1073741824
 10
1.0
 20
1.0
 30
1.0
 43
0.0
176
     0
293
     0
294
     0
178
     0
179
     1
 45
1.0
271
     0
272
     9
273
     9
1001
RJP
1000
© - 20170111
  0
MULTILEADER
  5
123
102
{ACAD_XDICTIONARY
360
20A
102
}
330
2
100
AcDbEntity
  8
LP_Mleader
160
              1988
310
C4070000420000000C00000016000000000000C00C00000033000000000000000C00000013000000993A00000C00000016000000000000C20C00000014000000010000006C0000000700000004000000A0DBB6F0B64A394010B40F4390CC15C000000000000000006DE4988DD17D394010B40F4390CC15C000000000000000
310
006DE4988DD17D394010B40F4390CC16C00000000000000000A0DBB6F0B64A394010B40F4390CC16C000000000000000000C00000016000000000000C00C0000001400000001000000B400000026000000266F77BCE257394010B40F43908C16C0000000000000000000000000000000000000000000000000000000000000
310
F03F000000000000F03F00000000000000000000000000000000450000000100000001000000000000000000C03F9A9999999999E93F0000000000000000000000000000F03F00000000000000000000000000000000000000000000000000000000010000002200000041007200690061006C00000000000000000000000C
310
00000033000000000000000C00000010000000040000000C00000016000000000000C00C00000012000000FF7F00000C0000001300000001000000880000001D0000005E7A98CE68D4B5BFEEB7CEC1DE65B73F0000000000000000C38D83BD71F83840EEB7CEC1DE65B7BF5E7A98CE68D4B5BF0000000000000000E09A83D9
310
909F17C000000000000000000000000000000000000000000000C03F0000000000000000000000000000000000000000000000000000000000000000000000000000F03F0C00000016000000010000C30C00000017000000FDFFFFFF0C0000001400000002000000100000001900000000000000000000004C000000210000
310
003D0000004509A9999999999993F4090200000000000000000000000000000000C040000000003C2FF402F6A7952C4D63F3657E861F3A4F02FCD95FA187CE93C0BF0000000C000000120000000000000064000000040000000C5F8D3FE66BC63FBDBED8444D9B004000000000000000006D1DC84269AA0040000000000000
310
00000000000000000000000000000000F03FE2ABF1C77CCDF2BFAAF156EB8585FBBF0000000000000000B054C1C8507CE03F000000000C00000016000000010000C30C00000017000000FDFFFFFF0C000000140000000200000010000000190000000000000000000000460000002100000037000000080050240800000000
310
000000000000000000000003000000000000E0BF226A666666666724FC9A9999999999993F26A666666666664FFF0000000C0000001200000000000000540000002000000002000000000000000000000000000000000000000000000000000000000000000000E0BF00000000000000000000000000000000000000000000
310
00000000000000000000000000000000F03F0C00000016000000010000C30C00000017000000FDFFFFFF0C0000001400000002000000100000001900000000000000000000004C000000210000003D0000004509A9999999999993F4090200000000000000000000000000000000C040000000003C2FF402F6A7952C4D6BF3
310
657E861F3A4F00FCD95FA187CE93C03F0000000C000000120000000000000064000000040000000C5F8D3FE66BC63FBDBED8444D9B00C000000000000000006D1DC84269AA004000000000000000000000000000000000000000000000F03F0C5F8D3FE66BC6BFBDBED8444D9B00400000000000000000B854C1C8507CE03F
310
000000000C00000016000000010000C30C00000017000000FDFFFFFF0C0000001400000002000000100000001900000000000000000000004E000000210000003F0000000800502408000000000003C2FC00000000020244F3000000000000E0BFC000000000000000226A666666666724FC9A9999999999993F26A6666666
310
66664FFF0000000C0000001200000000000000540000002000000002000000000000000000F0BF000000000080913C0000000000000000000000000000E0BF0000000000000000000000000000000000000000000000000000000000000000000000000000F03F080000001F0000000C00000016000000000000C00C000000
310
12000000FF7F00000C00000033000000000000000C00000013000000891300003C00000006000000020000003D265226460E394000607C5EF94117C000000000000000006DA883BD8347394010B40F43904C16C000000000000000000C00000013000000112700003C00000006000000020000006DA883BD8347394010B40F
310
43904C16C000000000000000003A75508A5054394010B40F43904C16C000000000000000000C00000016000000000000C00C00000012000000FF7F00000C00000017000000000000000C000000130000009A3A00000C00000016000000000000C00C00000012000000FF7F00000C00000017000000FFFFFFFF0C0000003300
310
0000000000000C00000033000000000000000C00000010000000040000000C00000016000000000000C08400000006000000050000003A75508A50543940761A76A9F6F215C00000000000000000D44AFFF337743940761A76A9F6F215C00000000000000000D44AFFF337743940A94DA9DC29A616C000000000000000003A
310
75508A50543940A94DA9DC29A616C000000000000000003A75508A50543940761A76A9F6F215C000000000000000000C0000000E000000000100000C00000017000000FFFFFFFF0C0000003300000000000000
100
AcDbMLeader
270
     2
300
CONTEXT_DATA{
 40
1.0
 10
25.32935394729905
 20
-5.574769065698106
 30
0.0
 41
0.125
140
0.125
145
0.025
174
     1
175
     1
176
     0
177
     0
290
     1
304
E
 11
0.0
 21
0.0
 31
1.0
340
32
 12
25.35435394729905
 22
-5.512269065698106
 32
0.0
 13
1.0
 23
0.0
 33
0.0
 42
0.0
 43
0.0
 44
0.0
 45
1.0
170
     1
 90
-1073741824
171
     1
172
     5
 91
-1027028792
141
1.5
 92
        0
291
     1
292
     1
173
     0
293
     0
142
0.0
143
0.0
294
     0
295
     0
296
     0
110
25.17394529423774
120
-6.955159393800734
130
0.0
111
1.0
121
0.0
131
0.0
112
0.0
122
1.0
132
0.0
297
     0
302
LEADER{
290
     1
291
     1
 10
25.27935394729905
 20
-5.574769065698106
 30
0.0
 11
1.0
 21
0.0
 31
0.0
 90
        0
 40
0.05
304
LEADER_LINE{
 10
24.97048553907167
 20
-5.905825995118647
 30
0.0
 91
        0
305
}
271
     0
303
}
272
     9
273
     9
301
}
340
115
 90
   410784
170
     1
 91
-1073741824
171
    -2
290
     1
291
     1
 41
0.05
342
117
 42
0.125
172
     2
343
32
173
     1
 95
        1
174
     0
175
     0
 92
-1073741824
292
     1
 93
-1073741824
 10
1.0
 20
1.0
 30
1.0
 43
0.0
176
     0
293
     0
294
     0
178
     0
179
     1
 45
1.0
271
     0
272
     9
273
     9
1001
RJP
1000
© - 20170111
  0
MULTILEADER
  5
124
102
{ACAD_XDICTIONARY
360
20C
102
}
330
2
100
AcDbEntity
  8
LP_Mleader
160
              1988
310
C4070000420000000C00000016000000000000C00C00000033000000000000000C00000013000000993A00000C00000016000000000000C20C00000014000000010000006C00000007000000040000009B75755AFA513A40BC2B3F105CAA1DC000000000000000003F6C1B933F833A40BC2B3F105CAA1DC000000000000000
310
003F6C1B933F833A40BC2B3F105CAA1EC000000000000000009B75755AFA513A40BC2B3F105CAA1EC000000000000000000C00000016000000000000C00C0000001400000001000000B40000002600000026F2AE530B5F3A40BC2B3F105C6A1EC0000000000000000000000000000000000000000000000000000000000000
310
F03F000000000000F03F00000000000000000000000000000000460000000100000001000000000000000000C03F9A9999999999E93F0000000000000000000000000000F03F00000000000000000000000000000000000000000000000000000000010000002200000041007200690061006C00000000000000000000000C
310
00000033000000000000000C00000010000000040000000C00000016000000000000C00C00000012000000FF7F00000C0000001300000001000000880000001D0000005E7A98CE68D4B5BFEEB7CEC1DE65B73F0000000000000000BE274227B5FF3940EEB7CEC1DE65B7BF5E7A98CE68D4B5BF00000000000000008C12B3A6
310
5C7D1FC000000000000000000000000000000000000000000000C03F0000000000000000000000000000000000000000000000000000000000000000000000000000F03F0C00000016000000010000C30C00000017000000FDFFFFFF0C0000001400000002000000100000001900000000000000000000004C000000210000
310
003D0000004509A9999999999993F4090200000000000000000000000000000000C040000000003C2FF402F6A7952C4D63F3657E861F3A4F02FCD95FA187CE93C0BF0000000C000000120000000000000064000000040000000C5F8D3FE66BC63FBDBED8444D9B004000000000000000006D1DC84269AA0040000000000000
310
00000000000000000000000000000000F03FE2ABF1C77CCDF2BFAAF156EB8585FBBF0000000000000000B054C1C8507CE03F000000000C00000016000000010000C30C00000017000000FDFFFFFF0C000000140000000200000010000000190000000000000000000000460000002100000037000000080050240800000000
310
000000000000000000000003000000000000E0BF226A666666666724FC9A9999999999993F26A666666666664FFFFF00000C0000001200000000000000540000002000000002000000000000000000000000000000000000000000000000000000000000000000E0BF00000000000000000000000000000000000000000000
310
00000000000000000000000000000000F03F0C00000016000000010000C30C00000017000000FDFFFFFF0C0000001400000002000000100000001900000000000000000000004C000000210000003D0000004509A9999999999993F4090200000000000000000000000000000000C040000000003C2FF402F6A7952C4D6BF3
310
657E861F3A4F00FCD95FA187CE93C03F0000000C000000120000000000000064000000040000000C5F8D3FE66BC63FBDBED8444D9B00C000000000000000006D1DC84269AA004000000000000000000000000000000000000000000000F03F0C5F8D3FE66BC6BFBDBED8444D9B00400000000000000000B854C1C8507CE03F
310
000000000C00000016000000010000C30C00000017000000FDFFFFFF0C0000001400000002000000100000001900000000000000000000004E000000210000003F0000000800502408000000000003C2FC00000000020244F3000000000000E0BFC000000000000000226A666666666724FC9A9999999999993F26A6666666
310
66664FFF0000000C0000001200000000000000540000002000000002000000000000000000F0BF000000000080913C0000000000000000000000000000E0BF0000000000000000000000000000000000000000000000000000000000000000000000000000F03F080000001F0000000C00000016000000000000C00C000000
310
12000000FF7F00000C00000033000000000000000C00000013000000891300003C000000060000000200000038C0109089153A40ACD7AB2BC51F1FC0000000000000000068424227C74E3A40BC2B3F105C2A1EC000000000000000000C00000013000000112700003C000000060000000200000068424227C74E3A40BC2B3F
310
105C2A1EC00000000000000000350F0FF4935B3A40BC2B3F105C2A1EC000000000000000000C00000016000000000000C00C00000012000000FF7F00000C00000017000000000000000C000000130000009A3A00000C00000016000000000000C00C00000012000000FF7F00000C00000017000000FFFFFFFF0C0000003300
310
0000000000000C00000033000000000000000C00000010000000040000000C00000016000000000000C0840000000600000005000000350F0FF4935B3A402292A576C2D01DC00000000000000000A6D281F9A5793A402292A576C2D01DC00000000000000000A6D281F9A5793A4055C5D8A9F5831EC0000000000000000035
310
0F0FF4935B3A4055C5D8A9F5831EC00000000000000000350F0FF4935B3A402292A576C2D01DC000000000000000000C0000000E000000000100000C00000017000000FFFFFFFF0C0000003300000000000000
100
AcDbMLeader
270
     2
300
CONTEXT_DATA{
 40
1.0
 10
26.3577263390318
 20
-7.541366819244043
 30
0.0
 41
0.125
140
0.125
145
0.025
174
     1
175
     1
176
     0
177
     0
290
     1
304
F
 11
0.0
 21
0.0
 31
1.0
340
32
 12
26.3827263390318
 22
-7.478866819244043
 32
0.0
 13
1.0
 23
0.0
 33
0.0
 42
0.0
 43
0.0
 44
0.0
 45
1.0
170
     1
 90
-1073741824
171
     1
172
     5
 91
-1027028792
141
1.5
 92
        0
291
     1
292
     1
173
     0
293
     0
142
0.0
143
0.0
294
     0
295
     0
296
     0
110
26.20231768597049
120
-8.921757147346671
130
0.0
111
1.0
121
0.0
131
0.0
112
0.0
122
1.0
132
0.0
297
     0
302
LEADER{
290
     1
291
     1
 10
26.3077263390318
 20
-7.541366819244043
 30
0.0
 11
1.0
 21
0.0
 31
0.0
 90
        0
 40
0.05
304
LEADER_LINE{
 10
25.99885793080443
 20
-7.872423748664584
 30
0.0
 91
        0
305
}
271
     0
303
}
272
     9
273
     9
301
}
340
115
 90
   410784
170
     1
 91
-1073741824
171
    -2
290
     1
291
     1
 41
0.05
342
117
 42
0.125
172
     2
343
32
173
     1
 95
        1
174
     0
175
     0
 92
-1073741824
292
     1
 93
-1073741824
 10
1.0
 20
1.0
 30
1.0
 43
0.0
176
     0
293
     0
294
     0
178
     0
179
     1
 45
1.0
271
     0
272
     9
273
     9
1001
RJP
1000
© - 20170111
  0
LWPOLYLINE
  5
125
330
2
100
AcDbEntity
  8
LP_Detail
100
AcDbPolyline
 90
        2
 70
   128
 43
0.0
 10
25.62047285632064
 20
-7.81999219920931
 42
-0.5547242691163388
 10
25.827755018181
 20
-7.84207265677746
 42
-1.596710178632404
1001
RJP
1000
© - 20170111
  0
LWPOLYLINE
  5
126
330
2
100
AcDbEntity
  8
LP_Detail
100
AcDbPolyline
 90
        2
 70
   128
 43
0.0
 10
25.56243656018749
 20
-8.167629064623604
 42
-0.4143442411708801
 10
25.38033838580671
 20
-8.125273210040205
 42
-12.03786523672337
1001
RJP
1000
© - 20170111
  0
LWPOLYLINE
  5
127
330
2
100
AcDbEntity
  8
LP_Detail
100
AcDbPolyline
 90
        2
 70
   128
 43
0.0
 10
25.39796565514401
 20
-8.47079080927847
 42
-0.7622104693237036
 10
25.5418580354544
 20
-8.514629370033958
 42
-4.832157188711501
1001
RJP
1000
© - 20170111
  0
LWPOLYLINE
  5
128
330
2
100
AcDbEntity
  8
LP_Detail
100
AcDbPolyline
 90
        2
 70
   128
 43
0.0
 10
25.08033749012709
 20
-6.84525288167595
 42
0.5652688868985181
 10
24.85884324740982
 20
-7.026867137297898
 42
0.8315736891997445
1001
RJP
1000
© - 20170111
  0
LWPOLYLINE
  5
129
330
2
100
AcDbEntity
  8
LP_Detail
100
AcDbPolyline
 90
        2
 70
   128
 43
0.0
 10
25.22752765720476
 20
-6.96979462827092
 42
-0.6729156991198066
 10
25.00073177482318
 20
-7.165058928058584
 42
0.3205534703463007
1001
RJP
1000
© - 20170111
  0
LWPOLYLINE
  5
12A
330
2
100
AcDbEntity
  8
LP_Detail
100
AcDbPolyline
 90
        2
 70
   128
 43
0.0
 10
24.48151055158958
 20
-6.421020886249509
 42
-0.4636561605746722
 10
24.62683193551385
 20
-6.129829434692453
 42
-0.5451619588301826
1001
RJP
1000
© - 20170111
  0
LWPOLYLINE
  5
12B
330
2
100
AcDbEntity
  8
LP_Detail
100
AcDbPolyline
 90
        2
 70
   128
 43
0.0
 10
24.72902564877781
 20
-6.557648245715924
 42
0.5357177520441971
 10
24.84876008557683
 20
-6.240746505864464
 42
5.237824828597162
1001
RJP
1000
© - 20170111
  0
LWPOLYLINE
  5
12C
330
2
100
AcDbEntity
  8
LP_Detail
100
AcDbPolyline
 90
        2
 70
   128
 43
0.0
 10
23.59759433672266
 20
-5.325764751805561
 42
0.5155792544397322
 10
23.1991796311174
 20
-5.651218717634947
 42
0.5162437945856632
1001
RJP
1000
© - 20170111
  0
LWPOLYLINE
  5
12D
330
2
100
AcDbEntity
  8
LP_Detail
100
AcDbPolyline
 90
        2
 70
   128
 43
0.0
 10
23.76412635341006
 20
-5.768439878868671
 42
-0.3046557461051333
 10
23.38605506995364
 20
-5.756918048143546
 42
-0.8381548086744821
1001
RJP
1000
© - 20170111
  0
LWPOLYLINE
  5
12E
330
2
100
AcDbEntity
  8
LP_Detail
100
AcDbPolyline
 90
        2
 70
   128
 43
0.0
 10
23.69169501712288
 20
-5.544926081067089
 42
0.2377627554317026
 10
23.40064038599698
 20
-5.632994760884443
 42
2.675867669285748
1001
RJP
1000
© - 20170111
  0
LWPOLYLINE
  5
12F
330
2
100
AcDbEntity
  8
LP_Detail
100
AcDbPolyline
 90
        2
 70
   128
 43
0.0
 10
21.00601307454197
 20
-4.376655693462035
 42
-0.3020711594296213
 10
21.25408977738235
 20
-3.763111162750547
 42
-0.7326035333034402
1001
RJP
1000
© - 20170111
  0
LWPOLYLINE
  5
130
330
2
100
AcDbEntity
  8
LP_Detail
100
AcDbPolyline
 90
        2
 70
   128
 43
0.0
 10
21.92690181764298
 20
-4.488990903322097
 42
0.3916274367002571
 10
21.66056913393427
 20
-3.737372194403207
 42
5.740586323893846
1001
RJP
1000
© - 20170111
  0
LWPOLYLINE
  5
131
330
2
100
AcDbEntity
  8
LP_Detail
100
AcDbPolyline
 90
        2
 70
   128
 43
0.0
 10
21.26713278803785
 20
-4.503720035452808
 42
-0.2994433767205991
 10
21.36359083041981
 20
-4.077467524486579
 42
-0.9618795397374013
1001
RJP
1000
© - 20170111
  0
LWPOLYLINE
  5
132
330
2
100
AcDbEntity
  8
LP_Detail
100
AcDbPolyline
 90
        2
 70
   128
 43
0.0
 10
21.62739988309857
 20
-4.550468774611943
 42
0.1595543387659668
 10
21.56545671455649
 20
-4.092142489620385
 42
-3.668762857845652
1001
RJP
1000
© - 20170111
  0
MULTILEADER
  5
133
102
{ACAD_XDICTIONARY
360
20E
102
}
330
2
100
AcDbEntity
  8
LP_Mleader
160
              1988
310
C4070000420000000C00000016000000000000C00C00000033000000000000000C00000013000000993A00000C00000016000000000000C20C00000014000000010000006C0000000700000004000000482D68B43C21364041713C76AE1E0BC00000000000000000E776AA8FEA58364041713C76AE1E0BC000000000000000
310
00E776AA8FEA583640F996E0A869270DC00000000000000000482D68B43C213640F996E0A869270DC000000000000000000C00000016000000000000C00C0000001400000001000000B40000002600000077B67C6E552F36401D848E0F0CA30CC0000000000000000000000000000000000000000000000000000000000000
310
F03F000000000000F03F00000000000000000000000000000000470000000100000001000000000000000000C03F9A9999999999E93F0000000000000000000000000000F03F00000000000000000000000000000000000000000000000000000000010000002200000041007200690061006C00000000000000000000000C
310
00000033000000000000000C00000010000000040000000C00000016000000000000C00C00000012000000FF7F00000C0000001300000001000000880000001D0000005E7A98CE68D4B5BFEEB7CEC1DE65B73F00000000000000006BDF3481F7CE3540EEB7CEC1DE65B7BF5E7A98CE68D4B5BF00000000000000004F48CD6F
310
DEC60EC000000000000000000000000000000000000000000000C03F0000000000000000000000000000000000000000000000000000000000000000000000000000F03F0C00000016000000010000C30C00000017000000FDFFFFFF0C0000001400000002000000100000001900000000000000000000004C000000210000
310
003D0000004509A9999999999993F4090200000000000000000000000000000000C040000000003C2FF402F6A7952C4D63F3657E861F3A4F02FCD95FA187CE93C0BF5361740C000000120000000000000064000000040000000C5F8D3FE66BC63FBDBED8444D9B004000000000000000006D1DC84269AA0040000000000000
310
00000000000000000000000000000000F03FE2ABF1C77CCDF2BFAAF156EB8585FBBF0000000000000000B054C1C8507CE03F000000000C00000016000000010000C30C00000017000000FDFFFFFF0C000000140000000200000010000000190000000000000000000000460000002100000037000000080050240800000000
310
000000000000000000000003000000000000E0BF226A666666666724FC9A9999999999993F26A666666666664FFFFF00000C0000001200000000000000540000002000000002000000000000000000000000000000000000000000000000000000000000000000E0BF00000000000000000000000000000000000000000000
310
00000000000000000000000000000000F03F0C00000016000000010000C30C00000017000000FDFFFFFF0C0000001400000002000000100000001900000000000000000000004C000000210000003D0000004509A9999999999993F4090200000000000000000000000000000000C040000000003C2FF402F6A7952C4D6BF3
310
657E861F3A4F00FCD95FA187CE93C03F5361740C000000120000000000000064000000040000000C5F8D3FE66BC63FBDBED8444D9B00C000000000000000006D1DC84269AA004000000000000000000000000000000000000000000000F03F0C5F8D3FE66BC6BFBDBED8444D9B00400000000000000000B854C1C8507CE03F
310
000000000C00000016000000010000C30C00000017000000FDFFFFFF0C0000001400000002000000100000001900000000000000000000004E000000210000003F0000000800502408000000000003C2FC00000000020244F3000000000000E0BFC000000000000000226A666666666724FC9A9999999999993F26A6666666
310
66664FFF0000000C0000001200000000000000540000002000000002000000000000000000F0BF000000000080913C0000000000000000000000000000E0BF0000000000000000000000000000000000000000000000000000000000000000000000000000F03F080000001F0000000C00000016000000000000C00C000000
310
12000000FF7F00000C00000033000000000000000C00000013000000891300003C0000000600000002000000E57703EACBE435408FD2BE79AF0B0EC0000000000000000015FA3481091E3640AF7AE542DD200CC000000000000000000C00000013000000112700003C000000060000000200000015FA3481091E3640AF7AE5
310
42DD200CC00000000000000000E2C6014ED62A3640AF7AE542DD200CC000000000000000000C00000016000000000000C00C00000012000000FF7F00000C00000017000000000000000C000000130000009A3A00000C00000016000000000000C00C00000012000000FF7F00000C00000017000000FFFFFFFF0C0000003300
310
0000000000000C00000033000000000000000C00000010000000040000000C00000016000000000000C0840000000600000005000000E2C6014ED62A36400E3E09437B6B0BC000000000000000004EDD10F6504F36400E3E09437B6B0BC000000000000000004EDD10F6504F36402CCA13DC9CDA0CC00000000000000000E2
310
C6014ED62A36402CCA13DC9CDA0CC00000000000000000E2C6014ED62A36400E3E09437B6B0BC000000000000000000C0000000E000000000100000C00000017000000FFFFFFFF0C0000003300000000000000
100
AcDbMLeader
270
     2
300
CONTEXT_DATA{
 40
1.0
 10
22.16733253043538
 20
-3.516047022464895
 30
0.0
 41
0.125
140
0.125
145
0.025
174
     1
175
     1
176
     0
177
     0
290
     1
304
G
 11
0.0
 21
0.0
 31
1.0
340
32
 12
22.19233253043538
 22
-3.452481197089725
 32
0.0
 13
1.0
 23
0.0
 33
0.0
 42
0.0
 43
0.0
 44
0.0
 45
1.0
170
     1
 90
-1073741824
171
     1
172
     5
 91
-1027028792
141
1.5
 92
        0
291
     1
292
     1
173
     0
293
     0
142
0.0
143
0.0
294
     0
295
     0
296
     0
110
22.01192387737407
120
-4.896437350567524
130
0.0
111
1.0
121
0.0
131
0.0
112
0.0
122
1.0
132
0.0
297
     0
302
LEADER{
290
     1
291
     1
 10
22.11733253043538
 20
-3.516047022464895
 30
0.0
 11
1.0
 21
0.0
 31
0.0
 90
        0
 40
0.05
304
LEADER_LINE{
 10
21.808464122208
 20
-3.847103951885436
 30
0.0
 91
        0
305
}
271
     0
303
}
272
     9
273
     9
301
}
340
115
 90
   410784
170
     1
 91
-1073741824
171
    -2
290
     1
291
     1
 41
0.05
342
117
 42
0.125
172
     2
343
32
173
     1
 95
        1
174
     0
175
     0
 92
-1073741824
292
     1
 93
-1073741824
 10
1.0
 20
1.0
 30
1.0
 43
0.0
176
     0
293
     0
294
     0
178
     0
179
     1
 45
1.0
271
     0
272
     9
273
     9
1001
RJP
1000
© - 20170111
  0
VIEWPORT
  5
13B
330
139
100
AcDbEntity
 67
     1
  8
0
100
AcDbViewport
 10
8.693943134101035
 20
5.5
 30
0.0
 40
23.05152679600894
 41
11.05284227381905
 68
     1
 69
     1
 12
8.693943134101035
 22
5.5
 13
0.0
 23
0.0
 14
0.5
 24
0.5
 15
0.5
 25
0.5
 16
0.0
 26
0.0
 36
1.0
 17
0.0
 27
0.0
 37
0.0
 42
50.0
 43
0.0
 44
0.0
 45
11.05284227381905
 50
0.0
 51
0.0
 72
  1000
 90
   835616
  1

281
     0
 71
     0
 74
     0
110
0.0
120
0.0
130
0.0
111
0.0
121
0.0
131
0.0
112
0.0
122
0.0
132
0.0
 79
     0
146
0.0
170
     0
 61
     5
348
13E
292
     1
282
     1
141
0.0
142
0.0
 63
   250
421
  3355443
  0
VIEWPORT
  5
140
102
{ACAD_XDICTIONARY
360
141
102
}
330
139
100
AcDbEntity
 67
     1
  8
viewport
100
AcDbViewport
 10
8.5
 20
5.5
 30
0.0
 40
17.0
 41
11.0
 68
     2
 69
     2
 12
26.25
 22
-6.75
 13
0.0
 23
0.0
 14
0.14
 24
0.14
 15
0.14
 25
0.14
 16
0.0
 26
0.0
 36
1.0
 17
0.0
 27
0.0
 37
0.0
 42
50.0
 43
0.0
 44
0.0
 45
11.0
 50
0.0
 51
0.0
 72
  1000
 90
   835616
  1

281
     0
 71
     1
 74
     0
110
0.0
120
0.0
130
0.0
111
1.0
121
0.0
131
0.0
112
0.0
122
1.0
132
0.0
 79
     0
146
0.0
170
     0
 61
     5
348
13E
292
     1
282
     1
141
0.0
142
0.0
 63
   250
421
  3355443
  0
ENDSEC
  0
SECTION
  2
OBJECTS
  0
DICTIONARY
  5
9
330
0
100
AcDbDictionary
281
     1
  3
ACAD_CIP_PREVIOUS_PRODUCT_INFO
350
1E9
  3
ACAD_COLOR
350
170
  3
ACAD_DETAILVIEWSTYLE
350
1DE
  3
ACAD_FIELDLIST
350
1A0
  3
ACAD_GROUP
350
15D
  3
ACAD_LAYOUT
350
136
  3
ACAD_MATERIAL
350
F
  3
ACAD_MLEADERSTYLE
350
116
  3
ACAD_MLINESTYLE
350
15E
  3
ACAD_PLOTSETTINGS
350
15F
  3
ACAD_PLOTSTYLENAME
350
8
  3
ACAD_SCALELIST
350
144
  3
ACAD_SECTIONVIEWSTYLE
350
1DC
  3
ACAD_TABLESTYLE
350
171
  3
ACAD_VISUALSTYLE
350
13F
  3
ACDB_RECOMPOSE_DATA
350
1FF
  3
AcDbVariableDictionary
350
1BB
1001
BBSI_PltSel
1000
1
1000

1001
BBSI_Bookmarks
1000
1
1000
1
1000
0
1000
1
1000
0
1000
0
1000
0
1000
0
1000
0
1000
0
1000
0
1001
BBSI_BookmarksEx
1000
0
1000
0
1000

1000
0
1001
BBSI_Plots
1000

1000
ANSI_B_(17.00_x_11.00_Inches)
1000
431.799987792969
1000
279.399993896484
1000
0
1000
1
1000
1
1000
0
1000
0
1000
1
1000
0
1000
1
1000
1.56885758041751
1000
0
1000
1
1000
Full_B&W.ctb
1000
0
1000
0
1000
1
1000
1
1000
0
1000
0
1000
0
1000
0
1000
0
1000
0
1000

1000

  0
DICTIONARY
  5
158
330
155
100
AcDbDictionary
280
     1
281
     1
  0
DICTIONARY
  5
14A
330
149
100
AcDbDictionary
280
     1
281
     1
  3
ACAD_LAYERFILTERS
360
14B
  3
ACAD_LAYERSTATES
360
14C
  0
DICTIONARY
  5
3
330
2
100
AcDbDictionary
280
     1
281
     1
  3
ACAD_SORTENTS
360
19F
  0
DICTIONARY
  5
21
330
20
100
AcDbDictionary
280
     1
281
     1
  3
ACAD_SORTENTS
360
19C
  0
DICTIONARY
  5
46
330
45
100
AcDbDictionary
280
     1
281
     1
  3
ACAD_ENHANCEDBLOCK
360
47
  3
ACAD_SORTENTS
360
19D
  3
AcDbDynamicBlockRoundTripPurgePreventer
360
4F
  0
DICTIONARY
  5
F4
330
F3
100
AcDbDictionary
280
     1
281
     1
  0
DICTIONARY
  5
D1
330
D0
100
AcDbDictionary
280
     1
281
     1
  0
DICTIONARY
  5
118
330
117
100
AcDbDictionary
280
     1
281
     1
  0
DICTIONARY
  5
DA
330
D9
100
AcDbDictionary
280
     1
281
     1
  3
ACAD_SORTENTS
360
19A
  0
DICTIONARY
  5
B3
330
B2
100
AcDbDictionary
280
     1
281
     1
  3
ACAD_SORTENTS
360
199
  0
DICTIONARY
  5
60
330
5F
100
AcDbDictionary
280
     1
281
     1
  3
ACAD_SORTENTS
360
19E
  0
DICTIONARY
  5
73
330
72
100
AcDbDictionary
280
     1
281
     1
  3
ACAD_SORTENTS
360
19B
  0
DICTIONARY
  5
26
330
25
100
AcDbDictionary
280
     1
281
     1
  3
ACAD_FIELD
360
27
  0
DICTIONARY
  5
36
330
35
100
AcDbDictionary
280
     1
281
     1
  3
ACAD_FIELD
360
37
  0
DICTIONARY
  5
3E
330
3D
100
AcDbDictionary
280
     1
281
     1
  3
ACAD_MTEXT_2008_RT
360
1FC
  0
DICTIONARY
  5
40
330
3F
100
AcDbDictionary
280
     1
281
     1
  3
ACAD_MTEXT_2008_RT
360
1FD
  0
DICTIONARY
  5
42
330
41
100
AcDbDictionary
280
     1
281
     1
  3
AcDbBlockRepresentation
360
43
  0
DICTIONARY
  5
6E
330
6D
100
AcDbDictionary
280
     1
281
     1
  0
DICTIONARY
  5
200
330
113
100
AcDbDictionary
280
     1
281
     1
  3
ACAD_XREC_ROUNDTRIP
360
201
  0
DICTIONARY
  5
204
330
120
100
AcDbDictionary
280
     1
281
     1
  3
ACAD_XREC_ROUNDTRIP
360
205
  0
DICTIONARY
  5
206
330
121
100
AcDbDictionary
280
     1
281
     1
  3
ACAD_XREC_ROUNDTRIP
360
207
  0
DICTIONARY
  5
208
330
122
100
AcDbDictionary
280
     1
281
     1
  3
ACAD_XREC_ROUNDTRIP
360
209
  0
DICTIONARY
  5
20A
330
123
100
AcDbDictionary
280
     1
281
     1
  3
ACAD_XREC_ROUNDTRIP
360
20B
  0
DICTIONARY
  5
20C
330
124
100
AcDbDictionary
280
     1
281
     1
  3
ACAD_XREC_ROUNDTRIP
360
20D
  0
DICTIONARY
  5
20E
330
133
100
AcDbDictionary
280
     1
281
     1
  3
ACAD_XREC_ROUNDTRIP
360
20F
  0
DICTIONARY
  5
141
330
140
100
AcDbDictionary
280
     1
281
     1
  3
ASDK_XREC_ANNOTATION_SCALE_INFO
360
142
  0
XRECORD
  5
1E9
102
{ACAD_REACTORS
330
9
102
}
330
9
100
AcDbXrecord
280
     1
300
ACD
300
2018
300
ACD_F_S
  0
DICTIONARY
  5
170
102
{ACAD_REACTORS
330
9
102
}
330
9
100
AcDbDictionary
281
     1
  0
DICTIONARY
  5
1DE
102
{ACAD_REACTORS
330
9
102
}
330
9
100
AcDbDictionary
281
     1
  3
Imperial24
350
1DF
  0
FIELDLIST
  5
1A0
102
{ACAD_REACTORS
330
9
102
}
330
9
100
AcDbIdSet
 90
        6
330
28
330
29
330
2A
330
38
330
39
330
3A
100
AcDbFieldList
  0
DICTIONARY
  5
15D
102
{ACAD_REACTORS
330
9
102
}
330
9
100
AcDbDictionary
281
     1
  0
DICTIONARY
  5
136
102
{ACAD_REACTORS
330
9
102
}
330
9
100
AcDbDictionary
281
     1
  3
EMITTER PLACEMENT
350
147
  3
Model
350
135
  0
DICTIONARY
  5
F
102
{ACAD_REACTORS
330
9
102
}
330
9
100
AcDbDictionary
281
     1
  3
ByBlock
350
168
  3
ByLayer
350
160
  3
Global
350
E
  0
DICTIONARY
  5
116
102
{ACAD_REACTORS
330
9
102
}
330
9
100
AcDbDictionary
281
     1
  3
ArialNarrow
350
115
  3
Standard
350
1DB
  0
DICTIONARY
  5
15E
102
{ACAD_REACTORS
330
9
102
}
330
9
100
AcDbDictionary
281
     1
  3
DUCT_PIPE
350
172
  3
Standard
350
177
  0
DICTIONARY
  5
15F
102
{ACAD_REACTORS
330
9
102
}
330
9
100
AcDbDictionary
281
     1
  0
ACDBDICTIONARYWDFLT
  5
8
102
{ACAD_REACTORS
330
9
102
}
330
9
100
AcDbDictionary
281
     1
  3
Normal
350
7
100
AcDbDictionaryWithDefault
340
7
  0
DICTIONARY
  5
144
102
{ACAD_REACTORS
330
9
102
}
330
9
100
AcDbDictionary
281
     1
  3
A0
350
143
  3
A1
350
178
  3
A2
350
179
  3
A3
350
17A
  3
A4
350
17B
  3
A5
350
17C
  3
A6
350
17D
  3
A7
350
17E
  3
A8
350
17F
  3
A9
350
180
  3
B0
350
181
  3
B1
350
182
  3
B2
350
183
  3
B3
350
184
  3
B4
350
185
  3
B5
350
186
  3
B6
350
187
  3
B7
350
188
  3
B8
350
189
  3
B9
350
18A
  3
C0
350
18B
  3
C1
350
18C
  3
C2
350
18D
  3
C3
350
18E
  3
C4
350
18F
  3
C5
350
190
  3
C6
350
191
  3
C7
350
192
  3
C8
350
193
  3
C9
350
194
  3
D0
350
195
  3
D1
350
196
  3
D2
350
197
  0
DICTIONARY
  5
1DC
102
{ACAD_REACTORS
330
9
102
}
330
9
100
AcDbDictionary
281
     1
  3
Imperial24
350
1DD
  0
DICTIONARY
  5
171
102
{ACAD_REACTORS
330
9
102
}
330
9
100
AcDbDictionary
281
     1
  3
Standard
350
173
  0
DICTIONARY
  5
13F
102
{ACAD_REACTORS
330
9
102
}
330
9
100
AcDbDictionary
281
     1
  3
2dWireframe
350
13E
  3
Basic
350
1CA
  3
Brighten
350
1CE
  3
ColorChange
350
1D2
  3
Conceptual
350
1CC
  3
Dim
350
1CD
  3
EdgeColorOff
350
1DA
  3
Facepattern
350
1D1
  3
Flat
350
1C6
  3
FlatWithEdges
350
1C7
  3
Gouraud
350
1C8
  3
GouraudWithEdges
350
1C9
  3
Hidden
350
1CB
  3
JitterOff
350
1D8
  3
Linepattern
350
1D0
  3
OverhangOff
350
1D9
  3
Realistic
350
175
  3
Shaded
350
1D7
  3
Shaded with edges
350
1D6
  3
Shades of Gray
350
1D3
  3
Sketchy
350
1D4
  3
Thicken
350
1CF
  3
Wireframe
350
176
  3
X-Ray
350
1D5
  0
XRECORD
  5
1FF
102
{ACAD_REACTORS
330
9
102
}
330
9
100
AcDbXrecord
280
     1
 90
        1
330
3D
330
3F
330
173
  0
DICTIONARY
  5
1BB
102
{ACAD_REACTORS
330
9
102
}
330
9
100
AcDbDictionary
281
     1
  3
CANNOSCALE
350
1C2
  3
CMLEADERSTYLE
350
1BD
  3
CTABLESTYLE
350
1BC
  3
CVIEWDETAILSTYLE
350
1BE
  3
CVIEWSECTIONSTYLE
350
1BF
  3
LAYERNOTIFY
350
1C4
  3
LIGHTINGUNITS
350
1C3
  3
MSLTSCALE
350
1C1
  3
UPDATETHUMBNAIL
350
1C0
  0
DICTIONARY
  5
14B
102
{ACAD_REACTORS
330
14A
102
}
330
14A
100
AcDbDictionary
281
     1
  3
_0100-
350
1F0
  3
_0280-
350
1EF
  3
_Add Alternate
350
1F2
  3
_Bid Alternate
350
1F3
  3
_Color 253
350
1F5
  3
_Color 8
350
1F1
  3
_Color 84
350
1F4
  3
_Contours
350
1FB
  3
_Demo
350
1F6
  3
_Existing
350
1F7
  3
_Hardscape
350
1FA
  3
_IDT
350
1ED
  3
_Mask
350
1EE
  3
_NoXref
350
1EC
  3
_Row
350
1F8
  3
_Utility
350
1F9
  0
DICTIONARY
  5
14C
102
{ACAD_REACTORS
330
14A
102
}
330
14A
100
AcDbDictionary
281
     1
  0
SORTENTSTABLE
  5
19F
102
{ACAD_REACTORS
330
3
102
}
330
3
100
AcDbSortentsTable
330
2
331
1A
  5
1E
331
1E
  5
1A
  0
SORTENTSTABLE
  5
19C
102
{ACAD_REACTORS
330
21
102
}
330
21
100
AcDbSortentsTable
330
20
  0
ACAD_EVALUATION_GRAPH
  5
47
102
{ACAD_REACTORS
330
46
102
}
330
46
100
AcDbEvalGraph
 96
      128
 97
      128
 91
        0
 93
       32
 95
       94
360
48
 92
        2
 92
        2
 92
        0
 92
        3
 91
        1
 93
       32
 95
       95
360
4A
 92
       -1
 92
       -1
 92
        2
 92
        2
 91
        2
 93
       32
 95
       96
360
4B
 92
        0
 92
        0
 92
       -1
 92
       -1
 91
        3
 93
       32
 95
       97
360
4C
 92
        1
 92
        1
 92
       -1
 92
       -1
 91
        4
 93
       32
 95
      101
360
4D
 92
        3
 92
        3
 92
       -1
 92
       -1
 92
        0
 93
        0
 94
        1
 91
        0
 91
        2
 92
       -1
 92
       -1
 92
       -1
 92
        1
 92
       -1
 92
        1
 93
        0
 94
        1
 91
        0
 91
        3
 92
       -1
 92
       -1
 92
        0
 92
        3
 92
       -1
 92
        2
 93
        0
 94
        2
 91
        1
 91
        0
 92
       -1
 92
       -1
 92
       -1
 92
       -1
 92
       -1
 92
        3
 93
        0
 94
        2
 91
        0
 91
        4
 92
       -1
 92
       -1
 92
        1
 92
       -1
 92
       -1
  0
SORTENTSTABLE
  5
19D
102
{ACAD_REACTORS
330
46
102
}
330
46
100
AcDbSortentsTable
330
45
  0
ACDB_DYNAMICBLOCKPURGEPREVENTER_VERSION
  5
4F
102
{ACAD_REACTORS
330
46
102
}
330
46
100
AcDbDynamicBlockPurgePreventer
 70
     1
  0
SORTENTSTABLE
  5
19A
102
{ACAD_REACTORS
330
DA
102
}
330
DA
100
AcDbSortentsTable
330
D9
  0
SORTENTSTABLE
  5
199
102
{ACAD_REACTORS
330
B3
102
}
330
B3
100
AcDbSortentsTable
330
B2
331
CD
  5
C6
331
CC
  5
CD
331
C7
  5
C8
331
C6
  5
C7
331
CB
  5
CC
331
CA
  5
CB
331
C9
  5
CA
331
C8
  5
C9
  0
SORTENTSTABLE
  5
19E
102
{ACAD_REACTORS
330
60
102
}
330
60
100
AcDbSortentsTable
330
5F
  0
SORTENTSTABLE
  5
19B
102
{ACAD_REACTORS
330
73
102
}
330
73
100
AcDbSortentsTable
330
72
331
90
  5
8F
331
86
  5
85
331
85
  5
86
331
8F
  5
8E
331
8E
  5
8D
331
8D
  5
90
  0
DICTIONARY
  5
27
102
{ACAD_REACTORS
330
26
102
}
330
26
100
AcDbDictionary
280
     1
281
     1
  3
TEXT
360
28
  0
DICTIONARY
  5
37
102
{ACAD_REACTORS
330
36
102
}
330
36
100
AcDbDictionary
280
     1
281
     1
  3
TEXT
360
38
  0
XRECORD
  5
1FC
102
{ACAD_REACTORS
330
3E
102
}
330
3E
100
AcDbXrecord
280
     1
 40
8783513.0
  1
\A1;\pxi-3,l3,t3;A.^ILANDSCAPE PRODUCTS LP710 SERIES 1/2" OR LP940 3/4" PE TUBING\P\pi0,l0,tz;\P\pi-3,l3,t3;B.^ILANDSCAPE PRODUCTS PC EMITTER (SEE CHART BELOW FOR MODELS AVAILABLE & FLOW DATA)\P\pi0,l0,tz;\P\pi-3,l3,t3;C.^IDECIDUOUS TREE\P\pi0,l0,tz;\P\
  1
pi-3,l3,t3;D.^ICONIFEROUS TREE\P\pi0,l0,tz;\P\pi-3,l3,t3;E.^ISHRUB\P\pi0,l0,tz;\P\pi-3,l3,t3;F.^IPERENNIAL\P\pi0,l0,tz;\P\pi-3,l3,t3;G.^ILANDSCAPE PRODUCTS LP SERIES 1/4" PE TUBING
  0
XRECORD
  5
1FD
102
{ACAD_REACTORS
330
40
102
}
330
40
100
AcDbXrecord
280
     1
 40
13013568.0
  1
\A1;\pxi-1,l1;NOTES:\P\P\pi-4,l4,t3;{\A0;1.^IUSE LANDSCAPE PRODUCTS KEY PUNCH TOOL (12001605) TO SIMPLIFY EMITTER INSTALLATION IN PE TUBING.\P\pi-1,l1,tz;\P\pi-4,l4,t3;2.^IEMITTERS SHALL BE LOCATED IMMEDIATELY ADJACENT TO PERENNIALS AND AT THE OUTSIDE 
  1
PERIMETER OF THE PLANTING PIT OF ALL SHRUBS & TREES.\P\pi-1,l1,tz;\P\pi-4,l4,t3;3.^ILOCATE EMITTERS ON UPHILL SIDE OF PLANT.\P\pi-1,l1,tz;\P\pi-4,l4,t3;4.^IREFER TO LANDSCAPE & IRRIGATION  PLANS FOR EMITTER                      QUANTITY AND DISCHARGE R
  1
ATE AT EACH PLANT TYPE BASED ON RELATIVE PLANT WATER REQUIREMENTS.}
  0
DICTIONARY
  5
43
102
{ACAD_REACTORS
330
42
102
}
330
42
100
AcDbDictionary
280
     1
281
     1
  3
AcDbRepData
360
44
  3
AppDataCache
360
5B
  0
XRECORD
  5
201
102
{ACAD_REACTORS
330
200
102
}
330
200
100
AcDbXrecord
280
     1
102
ACAD_ROUNDTRIP_2012_MLEADER
295
     1
  0
XRECORD
  5
205
102
{ACAD_REACTORS
330
204
102
}
330
204
100
AcDbXrecord
280
     1
102
ACAD_ROUNDTRIP_2012_MLEADER
295
     1
  0
XRECORD
  5
207
102
{ACAD_REACTORS
330
206
102
}
330
206
100
AcDbXrecord
280
     1
102
ACAD_ROUNDTRIP_2012_MLEADER
295
     1
  0
XRECORD
  5
209
102
{ACAD_REACTORS
330
208
102
}
330
208
100
AcDbXrecord
280
     1
102
ACAD_ROUNDTRIP_2012_MLEADER
295
     1
  0
XRECORD
  5
20B
102
{ACAD_REACTORS
330
20A
102
}
330
20A
100
AcDbXrecord
280
     1
102
ACAD_ROUNDTRIP_2012_MLEADER
295
     1
  0
XRECORD
  5
20D
102
{ACAD_REACTORS
330
20C
102
}
330
20C
100
AcDbXrecord
280
     1
102
ACAD_ROUNDTRIP_2012_MLEADER
295
     1
  0
XRECORD
  5
20F
102
{ACAD_REACTORS
330
20E
102
}
330
20E
100
AcDbXrecord
280
     1
102
ACAD_ROUNDTRIP_2012_MLEADER
295
     1
  0
XRECORD
  5
142
102
{ACAD_REACTORS
330
141
102
}
330
141
100
AcDbXrecord
280
     1
 90
        1
340
143
  0
ACDBDETAILVIEWSTYLE
  5
1DF
102
{ACAD_XDICTIONARY
360
244
102
}
102
{ACAD_REACTORS
330
1DE
102
}
330
1DE
100
AcDbModelDocViewStyle
 70
     0
  3
Imperial24
290
     0
100
AcDbDetailViewStyle
 70
     0
 71
     0
 90
        3
 71
     1
340
14E
 62
   256
 40
0.24
340
0
 62
   256
 40
0.24
300

 40
0.36
280
     3
 71
     2
340
18
 90
       25
 62
   256
 71
     3
340
14E
 62
   256
 40
0.24
 90
        1
 40
0.75
 90
        1
300
%<\AcVar ViewType \f "%tc1">% %<\AcVar ViewDetailId>%\PSCALE %<\AcVar ViewScale \f "%sn">%
 71
     4
340
18
 90
       25
 62
   256
340
18
 90
       25
 62
   256
280
     0
  0
LAYOUT
  5
147
102
{ACAD_XDICTIONARY
360
148
102
}
102
{ACAD_REACTORS
330
136
102
}
330
136
100
AcDbPlotSettings
  1

  2
_DWG To PDF.pc3
  4
ANSI_full_bleed_B_(17.00_x_11.00_Inches)
  6

 40
0.7937499880790711
 41
0.7937499880790711
 42
0.79376220703125
 43
0.79376220703125
 44
431.7999877929687
 45
279.3999938964844
 46
-0.793762201070788
 47
-0.7937591493129644
 48
0.0
 49
0.0
140
17.0
141
11.0
142
1.0
143
1.0
 70
   742
 72
     0
 73
     0
 74
     4
  7
Full_B&W.ctb
 75
     0
147
0.9943181163256051
 76
     0
 77
     5
 78
   300
148
0.0
149
0.0
100
AcDbLayout
  1
EMITTER PLACEMENT
 70
     1
 71
     1
 10
0.0000004808264455
 20
0.0000003606784997
 11
17.00000000023466
 21
11.00000012038261
 12
0.0
 22
0.0
 32
0.0
 14
0.0
 24
0.0
 34
0.0
 15
17.0
 25
11.0
 35
0.0
146
0.0
 13
0.0
 23
0.0
 33
0.0
 16
1.0
 26
0.0
 36
0.0
 17
0.0
 27
1.0
 37
0.0
 76
     0
330
139
331
13B
1001
PLOTTRANSPARENCY
1071
        1
1001
ACAD_PSEXT
1000
_DWG To PDF.pc3
1000
DWG To PDF
1000
File
1000

1070
     0
  0
LAYOUT
  5
135
102
{ACAD_REACTORS
330
136
102
}
330
136
100
AcDbPlotSettings
  1

  2
\\Aqua-Srv00\Sharp_MX-3110N
  4
Tabloid
  6

 40
5.027082920074462
 41
5.027069091796875
 42
5.027099609375
 43
5.027069091796875
 44
279.3999938964844
 45
431.7999877929687
 46
0.0
 47
2.742070566524153
 48
-0.2499999999999982
 49
-36.25
140
16.75
141
-25.25
142
1.0
143
1.037328178901079
 70
 11956
 72
     0
 73
     1
 74
     4
  7
Full_B&W.ctb
 75
     0
147
0.9640150728956154
 76
     0
 77
     2
 78
   300
148
6.349999999999954
149
920.7499999999999
100
AcDbLayout
  1
Model
 70
     1
 71
     0
 10
0.0
 20
0.0
 11
12.0
 21
9.0
 12
0.0
 22
0.0
 32
0.0
 14
0.0
 24
0.0
 34
0.0
 15
0.0
 25
0.0
 35
0.0
146
0.0
 13
0.0
 23
0.0
 33
0.0
 16
1.0
 26
0.0
 36
0.0
 17
0.0
 27
1.0
 37
0.0
 76
     0
330
2
331
156
1001
PLOTTRANSPARENCY
1071
        1
1001
ACAD_PSEXT
1000
\\Aqua-Srv00\Sharp_MX-3110N
1000
SHARP MX-3110N PCL6
1000
\\Aqua-Srv00
1000

1070
     0
  0
MATERIAL
  5
168
102
{ACAD_XDICTIONARY
360
169
102
}
102
{ACAD_REACTORS
330
F
102
}
330
F
100
AcDbMaterial
  1
ByBlock
 72
     0
 43
0.0208333333333333
 43
0.0
 43
0.0
 43
0.0
 43
0.0
 43
0.0208333333333333
 43
0.0
 43
0.0
 43
0.0
 43
0.0
 43
1.0
 43
0.0
 43
0.0
 43
0.0
 43
0.0
 43
1.0
 77
     0
 47
0.0208333333333333
 47
0.0
 47
0.0
 47
0.0
 47
0.0
 47
0.0208333333333333
 47
0.0
 47
0.0
 47
0.0
 47
0.0
 47
1.0
 47
0.0
 47
0.0
 47
0.0
 47
0.0
 47
1.0
171
     0
 49
0.0208333333333333
 49
0.0
 49
0.0
 49
0.0
 49
0.0
 49
0.0208333333333333
 49
0.0
 49
0.0
 49
0.0
 49
0.0
 49
1.0
 49
0.0
 49
0.0
 49
0.0
 49
0.0
 49
1.0
175
     0
142
0.0208333333333333
142
0.0
142
0.0
142
0.0
142
0.0
142
0.0208333333333333
142
0.0
142
0.0
142
0.0
142
0.0
142
1.0
142
0.0
142
0.0
142
0.0
142
0.0
142
1.0
179
     0
144
0.0208333333333333
144
0.0
144
0.0
144
0.0
144
0.0
144
0.0208333333333333
144
0.0
144
0.0
144
0.0
144
0.0
144
1.0
144
0.0
144
0.0
144
0.0
144
0.0
144
1.0
147
0.0208333333333333
147
0.0
147
0.0
147
0.0
147
0.0
147
0.0208333333333333
147
0.0
147
0.0
147
0.0
147
0.0
147
1.0
147
0.0
147
0.0
147
0.0
147
0.0
147
1.0
  0
MATERIAL
  5
160
102
{ACAD_XDICTIONARY
360
161
102
}
102
{ACAD_REACTORS
330
F
102
}
330
F
100
AcDbMaterial
  1
ByLayer
 72
     0
 43
0.0208333333333333
 43
0.0
 43
0.0
 43
0.0
 43
0.0
 43
0.0208333333333333
 43
0.0
 43
0.0
 43
0.0
 43
0.0
 43
1.0
 43
0.0
 43
0.0
 43
0.0
 43
0.0
 43
1.0
 77
     0
 47
0.0208333333333333
 47
0.0
 47
0.0
 47
0.0
 47
0.0
 47
0.0208333333333333
 47
0.0
 47
0.0
 47
0.0
 47
0.0
 47
1.0
 47
0.0
 47
0.0
 47
0.0
 47
0.0
 47
1.0
171
     0
 49
0.0208333333333333
 49
0.0
 49
0.0
 49
0.0
 49
0.0
 49
0.0208333333333333
 49
0.0
 49
0.0
 49
0.0
 49
0.0
 49
1.0
 49
0.0
 49
0.0
 49
0.0
 49
0.0
 49
1.0
175
     0
142
0.0208333333333333
142
0.0
142
0.0
142
0.0
142
0.0
142
0.0208333333333333
142
0.0
142
0.0
142
0.0
142
0.0
142
1.0
142
0.0
142
0.0
142
0.0
142
0.0
142
1.0
179
     0
144
0.0208333333333333
144
0.0
144
0.0
144
0.0
144
0.0
144
0.0208333333333333
144
0.0
144
0.0
144
0.0
144
0.0
144
1.0
144
0.0
144
0.0
144
0.0
144
0.0
144
1.0
147
0.0208333333333333
147
0.0
147
0.0
147
0.0
147
0.0
147
0.0208333333333333
147
0.0
147
0.0
147
0.0
147
0.0
147
1.0
147
0.0
147
0.0
147
0.0
147
0.0
147
1.0
  0
MATERIAL
  5
E
102
{ACAD_XDICTIONARY
360
10
102
}
102
{ACAD_REACTORS
330
F
102
}
330
F
100
AcDbMaterial
  1
Global
 72
     0
 43
0.0208333333333333
 43
0.0
 43
0.0
 43
0.0
 43
0.0
 43
0.0208333333333333
 43
0.0
 43
0.0
 43
0.0
 43
0.0
 43
1.0
 43
0.0
 43
0.0
 43
0.0
 43
0.0
 43
1.0
 77
     0
 47
0.0208333333333333
 47
0.0
 47
0.0
 47
0.0
 47
0.0
 47
0.0208333333333333
 47
0.0
 47
0.0
 47
0.0
 47
0.0
 47
1.0
 47
0.0
 47
0.0
 47
0.0
 47
0.0
 47
1.0
171
     0
 49
0.0208333333333333
 49
0.0
 49
0.0
 49
0.0
 49
0.0
 49
0.0208333333333333
 49
0.0
 49
0.0
 49
0.0
 49
0.0
 49
1.0
 49
0.0
 49
0.0
 49
0.0
 49
0.0
 49
1.0
175
     0
142
0.0208333333333333
142
0.0
142
0.0
142
0.0
142
0.0
142
0.0208333333333333
142
0.0
142
0.0
142
0.0
142
0.0
142
1.0
142
0.0
142
0.0
142
0.0
142
0.0
142
1.0
179
     0
144
0.0208333333333333
144
0.0
144
0.0
144
0.0
144
0.0
144
0.0208333333333333
144
0.0
144
0.0
144
0.0
144
0.0
144
1.0
144
0.0
144
0.0
144
0.0
144
0.0
144
1.0
147
0.0208333333333333
147
0.0
147
0.0
147
0.0
147
0.0
147
0.0208333333333333
147
0.0
147
0.0
147
0.0
147
0.0
147
1.0
147
0.0
147
0.0
147
0.0
147
0.0
147
1.0
  0
MLEADERSTYLE
  5
115
102
{ACAD_XDICTIONARY
360
202
102
}
102
{ACAD_REACTORS
330
116
330
113
330
120
330
121
330
122
330
123
330
124
330
133
102
}
330
116
100
AcDbMLeaderStyle
179
     2
170
     2
171
     1
172
     0
 90
        2
 40
0.0
 41
0.0
173
     1
 91
-1073741824
 92
       -2
290
     1
 42
0.05
291
     1
 43
0.1
  3

341
117
 44
0.125
300

342
32
174
     1
178
     1
175
     0
176
     0
 93
-1073741824
 45
0.125
292
     0
297
     0
 46
5.0
 94
-1073741824
 47
1.0
 49
1.0
140
1.0
293
     1
141
0.0
294
     1
177
     0
142
1.0
295
     0
296
     0
143
0.125
271
     0
272
     9
273
     9
1001
ACAD_MLEADERVER
1070
     2
  0
MLEADERSTYLE
  5
1DB
102
{ACAD_XDICTIONARY
360
240
102
}
102
{ACAD_REACTORS
330
116
102
}
330
116
100
AcDbMLeaderStyle
179
     2
170
     2
171
     1
172
     0
 90
        2
 40
0.0
 41
0.0
173
     1
 91
-1056964608
340
151
 92
       -2
290
     1
 42
0.09
291
     1
 43
0.36
  3
Standard
 44
0.18
300

342
14E
174
     1
178
     6
175
     1
176
     0
 93
-1056964608
 45
0.18
292
     0
297
     0
 46
0.18
 94
-1056964608
 47
1.0
 49
1.0
140
1.0
293
     1
141
0.0
294
     1
177
     0
142
1.0
295
     0
296
     0
143
0.125
271
     0
272
     9
273
     9
  0
MLINESTYLE
  5
172
102
{ACAD_REACTORS
330
15E
102
}
330
15E
100
AcDbMlineStyle
  2
DUCT_PIPE
 70
   272
  3

 62
   256
 51
90.00021045914971
 52
90.00021045914971
 71
     2
 49
0.5
 62
   256
  6
BYBLOCK
 49
-0.5
 62
   256
  6
BYBLOCK
  0
MLINESTYLE
  5
177
102
{ACAD_REACTORS
330
15E
102
}
330
15E
100
AcDbMlineStyle
  2
STANDARD
 70
     0
  3

 62
   256
 51
90.0
 52
90.0
 71
     2
 49
0.5
 62
   256
  6
BYLAYER
 49
-0.5
 62
   256
  6
BYLAYER
  0
ACDBPLACEHOLDER
  5
7
102
{ACAD_REACTORS
330
8
102
}
330
8
  0
SCALE
  5
143
102
{ACAD_REACTORS
330
144
102
}
330
144
100
AcDbScale
 70
     0
300
1:1
140
1.0
141
1.0
290
     1
  0
SCALE
  5
178
102
{ACAD_REACTORS
330
144
102
}
330
144
100
AcDbScale
 70
     0
300
1:2
140
1.0
141
2.0
290
     0
  0
SCALE
  5
179
102
{ACAD_REACTORS
330
144
102
}
330
144
100
AcDbScale
 70
     0
300
1:4
140
1.0
141
4.0
290
     0
  0
SCALE
  5
17A
102
{ACAD_REACTORS
330
144
102
}
330
144
100
AcDbScale
 70
     0
300
1:5
140
1.0
141
5.0
290
     0
  0
SCALE
  5
17B
102
{ACAD_REACTORS
330
144
102
}
330
144
100
AcDbScale
 70
     0
300
1:8
140
1.0
141
8.0
290
     0
  0
SCALE
  5
17C
102
{ACAD_REACTORS
330
144
102
}
330
144
100
AcDbScale
 70
     0
300
1:10
140
1.0
141
10.0
290
     0
  0
SCALE
  5
17D
102
{ACAD_REACTORS
330
144
102
}
330
144
100
AcDbScale
 70
     0
300
1:16
140
1.0
141
16.0
290
     0
  0
SCALE
  5
17E
102
{ACAD_REACTORS
330
144
102
}
330
144
100
AcDbScale
 70
     0
300
1:20
140
1.0
141
20.0
290
     0
  0
SCALE
  5
17F
102
{ACAD_REACTORS
330
144
102
}
330
144
100
AcDbScale
 70
     0
300
1:30
140
1.0
141
30.0
290
     0
  0
SCALE
  5
180
102
{ACAD_REACTORS
330
144
102
}
330
144
100
AcDbScale
 70
     0
300
1:40
140
1.0
141
40.0
290
     0
  0
SCALE
  5
181
102
{ACAD_REACTORS
330
144
102
}
330
144
100
AcDbScale
 70
     0
300
1:50
140
1.0
141
50.0
290
     0
  0
SCALE
  5
182
102
{ACAD_REACTORS
330
144
102
}
330
144
100
AcDbScale
 70
     0
300
1:100
140
1.0
141
100.0
290
     0
  0
SCALE
  5
183
102
{ACAD_REACTORS
330
144
102
}
330
144
100
AcDbScale
 70
     0
300
2:1
140
2.0
141
1.0
290
     0
  0
SCALE
  5
184
102
{ACAD_REACTORS
330
144
102
}
330
144
100
AcDbScale
 70
     0
300
4:1
140
4.0
141
1.0
290
     0
  0
SCALE
  5
185
102
{ACAD_REACTORS
330
144
102
}
330
144
100
AcDbScale
 70
     0
300
8:1
140
8.0
141
1.0
290
     0
  0
SCALE
  5
186
102
{ACAD_REACTORS
330
144
102
}
330
144
100
AcDbScale
 70
     0
300
10:1
140
10.0
141
1.0
290
     0
  0
SCALE
  5
187
102
{ACAD_REACTORS
330
144
102
}
330
144
100
AcDbScale
 70
     0
300
100:1
140
100.0
141
1.0
290
     0
  0
SCALE
  5
188
102
{ACAD_REACTORS
330
144
102
}
330
144
100
AcDbScale
 70
     0
300
1/128" = 1'-0"
140
0.0078125
141
12.0
290
     0
  0
SCALE
  5
189
102
{ACAD_REACTORS
330
144
102
}
330
144
100
AcDbScale
 70
     0
300
1/64" = 1'-0"
140
0.015625
141
12.0
290
     0
  0
SCALE
  5
18A
102
{ACAD_REACTORS
330
144
102
}
330
144
100
AcDbScale
 70
     0
300
1/32" = 1'-0"
140
0.03125
141
12.0
290
     0
  0
SCALE
  5
18B
102
{ACAD_REACTORS
330
144
102
}
330
144
100
AcDbScale
 70
     0
300
1/16" = 1'-0"
140
0.0625
141
12.0
290
     0
  0
SCALE
  5
18C
102
{ACAD_REACTORS
330
144
102
}
330
144
100
AcDbScale
 70
     0
300
3/32" = 1'-0"
140
0.09375
141
12.0
290
     0
  0
SCALE
  5
18D
102
{ACAD_REACTORS
330
144
102
}
330
144
100
AcDbScale
 70
     0
300
1/8" = 1'-0"
140
0.125
141
12.0
290
     0
  0
SCALE
  5
18E
102
{ACAD_REACTORS
330
144
102
}
330
144
100
AcDbScale
 70
     0
300
3/16" = 1'-0"
140
0.1875
141
12.0
290
     0
  0
SCALE
  5
18F
102
{ACAD_REACTORS
330
144
102
}
330
144
100
AcDbScale
 70
     0
300
1/4" = 1'-0"
140
0.25
141
12.0
290
     0
  0
SCALE
  5
190
102
{ACAD_REACTORS
330
144
102
}
330
144
100
AcDbScale
 70
     0
300
3/8" = 1'-0"
140
0.375
141
12.0
290
     0
  0
SCALE
  5
191
102
{ACAD_REACTORS
330
144
102
}
330
144
100
AcDbScale
 70
     0
300
1/2" = 1'-0"
140
0.5
141
12.0
290
     0
  0
SCALE
  5
192
102
{ACAD_REACTORS
330
144
102
}
330
144
100
AcDbScale
 70
     0
300
3/4" = 1'-0"
140
0.75
141
12.0
290
     0
  0
SCALE
  5
193
102
{ACAD_REACTORS
330
144
102
}
330
144
100
AcDbScale
 70
     0
300
1" = 1'-0"
140
1.0
141
12.0
290
     0
  0
SCALE
  5
194
102
{ACAD_REACTORS
330
144
102
}
330
144
100
AcDbScale
 70
     0
300
1-1/2" = 1'-0"
140
1.5
141
12.0
290
     0
  0
SCALE
  5
195
102
{ACAD_REACTORS
330
144
102
}
330
144
100
AcDbScale
 70
     0
300
3" = 1'-0"
140
3.0
141
12.0
290
     0
  0
SCALE
  5
196
102
{ACAD_REACTORS
330
144
102
}
330
144
100
AcDbScale
 70
     0
300
6" = 1'-0"
140
6.0
141
12.0
290
     0
  0
SCALE
  5
197
102
{ACAD_REACTORS
330
144
102
}
330
144
100
AcDbScale
 70
     0
300
1'-0" = 1'-0"
140
12.0
141
12.0
290
     0
  0
ACDBSECTIONVIEWSTYLE
  5
1DD
102
{ACAD_XDICTIONARY
360
242
102
}
102
{ACAD_REACTORS
330
1DC
102
}
330
1DC
100
AcDbModelDocViewStyle
 70
     0
  3
Imperial24
290
     0
100
AcDbSectionViewStyle
 70
     0
 71
     0
 90
       78
 71
     1
340
14E
 62
   256
 40
0.24
340
0
340
0
 62
   256
 40
0.24
300
I, O, Q, S, X, Z
 40
0.48
 90
        3
 40
0.18
 90
        1
 71
     2
340
18
 90
       25
 62
   256
340
18
 90
       50
 62
   256
 40
0.24
 40
0.0
 40
0.24
 71
     3
340
14E
 62
   256
 40
0.24
 90
        1
 40
0.75
 90
        1
300
%<\AcVar ViewType \f "%tc1">% %<\AcVar ViewSectionStartId>%-%<\AcVar ViewSectionEndId>%\PSCALE %<\AcVar ViewScale \f "%sn">%
 71
     4
 62
   256
 62
   257
300
ANSI31
 40
1.0
 90
        0
290
     0
290
     0
 90
        6
 40
0.0
 40
1.570796326794896
 40
0.2617993877991494
 40
1.308996938995747
 40
-0.2617993877991494
 40
1.832595714594046
  0
TABLESTYLE
  5
173
102
{ACAD_XDICTIONARY
360
174
102
}
102
{ACAD_REACTORS
330
171
102
}
330
171
100
AcDbTableStyle
280
     0
  3
Standard
 70
     0
 71
     0
 40
0.06
 41
0.06
280
     0
281
     0
  7
STANDARD
140
0.18
170
     2
 62
     0
 63
     7
283
     0
 90
      512
 91
        0
  1

274
    -2
284
     1
 64
     0
275
    -2
285
     1
 65
     0
276
    -2
286
     1
 66
     0
277
    -2
287
     1
 67
     0
278
    -2
288
     1
 68
     0
279
    -2
289
     1
 69
     0
  7
STANDARD
140
0.25
170
     5
 62
     0
 63
     7
283
     0
 90
      512
 91
        0
  1

274
    -2
284
     1
 64
     0
275
    -2
285
     1
 65
     0
276
    -2
286
     1
 66
     0
277
    -2
287
     1
 67
     0
278
    -2
288
     1
 68
     0
279
    -2
289
     1
 69
     0
  7
STANDARD
140
0.18
170
     5
 62
     0
 63
     7
283
     0
 90
      512
 91
        0
  1

274
    -2
284
     1
 64
     0
275
    -2
285
     1
 65
     0
276
    -2
286
     1
 66
     0
277
    -2
287
     1
 67
     0
278
    -2
288
     1
 68
     0
279
    -2
289
     1
 69
     0
  0
VISUALSTYLE
  5
13E
102
{ACAD_XDICTIONARY
360
210
102
}
102
{ACAD_REACTORS
330
13F
102
}
330
13F
100
AcDbVisualStyle
  2
2dWireframe
 70
     4
177
     2
291
     0
 71
     0
176
     1
 72
     2
176
     1
 73
     0
176
     1
 90
        0
176
     1
 40
0.6
176
     1
 41
30.0
176
     1
 63
     7
421
 16777215
176
     1
 74
     1
176
     1
 91
        4
176
     1
 64
     7
176
     1
 65
   257
176
     1
 75
     1
176
     1
175
     1
176
     1
 42
1.0
176
     1
 92
        0
176
     1
 66
   257
176
     1
 43
1.0
176
     1
 76
     1
176
     1
 77
     6
176
     1
 78
     2
176
     1
 67
     7
176
     1
 79
     5
176
     1
170
     0
176
     1
171
     0
176
     1
290
     0
176
     1
 93
        1
176
     1
 44
0.0
176
     1
173
     0
176
     1
1001
ACAD
1000
AcDbSavedByObjectVersion
1070
     0
  0
VISUALSTYLE
  5
1CA
102
{ACAD_XDICTIONARY
360
21E
102
}
102
{ACAD_REACTORS
330
13F
102
}
330
13F
100
AcDbVisualStyle
  2
Basic
 70
     7
177
     2
291
     1
 71
     1
176
     1
 72
     0
176
     1
 73
     1
176
     1
 90
        0
176
     1
 40
0.6
176
     1
 41
30.0
176
     1
 63
     7
421
 16777215
176
     1
 74
     0
176
     1
 91
        4
176
     1
 64
     7
176
     1
 65
   257
176
     1
 75
     1
176
     1
175
     1
176
     1
 42
1.0
176
     1
 92
        8
176
     1
 66
     7
176
     1
 43
1.0
176
     1
 76
     1
176
     1
 77
     6
176
     1
 78
     2
176
     1
 67
     7
176
     1
 79
     5
176
     1
170
     0
176
     1
171
     0
176
     1
290
     0
176
     1
 93
        1
176
     1
 44
0.0
176
     1
173
     0
176
     1
1001
ACAD
1000
AcDbSavedByObjectVersion
1070
     0
  0
VISUALSTYLE
  5
1CE
102
{ACAD_XDICTIONARY
360
226
102
}
102
{ACAD_REACTORS
330
13F
102
}
330
13F
100
AcDbVisualStyle
  2
Brighten
 70
    12
177
     2
291
     1
 71
     2
176
     1
 72
     2
176
     1
 73
     0
176
     1
 90
        0
176
     1
 40
0.6
176
     1
 41
30.0
176
     1
 63
     7
421
 16777215
176
     1
 74
     1
176
     1
 91
        4
176
     1
 64
     7
176
     1
 65
   257
176
     1
 75
     1
176
     1
175
     1
176
     1
 42
1.0
176
     1
 92
        8
176
     1
 66
     7
176
     1
 43
1.0
176
     1
 76
     1
176
     1
 77
     6
176
     1
 78
     2
176
     1
 67
     7
176
     1
 79
     5
176
     1
170
     0
176
     1
171
     0
176
     1
290
     0
176
     1
 93
        1
176
     1
 44
50.0
176
     1
173
     0
176
     1
1001
ACAD
1000
AcDbSavedByObjectVersion
1070
     0
  0
VISUALSTYLE
  5
1D2
102
{ACAD_XDICTIONARY
360
22E
102
}
102
{ACAD_REACTORS
330
13F
102
}
330
13F
100
AcDbVisualStyle
  2
ColorChange
 70
    16
177
     2
291
     1
 71
     2
176
     1
 72
     2
176
     1
 73
     3
176
     1
 90
        0
176
     1
 40
0.6
176
     1
 41
30.0
176
     1
 63
     8
421
  8421504
176
     1
 74
     1
176
     1
 91
        4
176
     1
 64
     7
176
     1
 65
   257
176
     1
 75
     1
176
     1
175
     1
176
     1
 42
1.0
176
     1
 92
        8
176
     1
 66
     8
424
  8421504
176
     1
 43
1.0
176
     1
 76
     1
176
     1
 77
     6
176
     1
 78
     2
176
     1
 67
     7
176
     1
 79
     5
176
     1
170
     0
176
     1
171
     0
176
     1
290
     0
176
     1
 93
        1
176
     1
 44
0.0
176
     1
173
     0
176
     1
1001
ACAD
1000
AcDbSavedByObjectVersion
1070
     0
  0
VISUALSTYLE
  5
1CC
102
{ACAD_XDICTIONARY
360
222
102
}
102
{ACAD_REACTORS
330
13F
102
}
330
13F
100
AcDbVisualStyle
  2
Conceptual
 70
     9
177
     2
291
     0
 71
     3
176
     1
 72
     2
176
     1
 73
     0
176
     1
 90
        0
176
     1
 40
0.6
176
     1
 41
30.0
176
     1
 63
     7
421
 16777215
176
     1
 74
     2
176
     1
 91
        2
176
     1
 64
     7
176
     1
 65
   257
176
     1
 75
     1
176
     1
175
     1
176
     1
 42
179.0
176
     1
 92
        8
176
     1
 66
     7
176
     1
 43
1.0
176
     1
 76
     1
176
     1
 77
     6
176
     1
 78
     2
176
     1
 67
     7
176
     1
 79
     3
176
     1
170
     0
176
     1
171
     0
176
     1
290
     0
176
     1
 93
        1
176
     1
 44
0.0
176
     1
173
     0
176
     1
1001
ACAD
1000
AcDbSavedByObjectVersion
1070
     0
  0
VISUALSTYLE
  5
1CD
102
{ACAD_XDICTIONARY
360
224
102
}
102
{ACAD_REACTORS
330
13F
102
}
330
13F
100
AcDbVisualStyle
  2
Dim
 70
    11
177
     2
291
     1
 71
     2
176
     1
 72
     2
176
     1
 73
     0
176
     1
 90
        0
176
     1
 40
0.6
176
     1
 41
30.0
176
     1
 63
     7
421
 16777215
176
     1
 74
     1
176
     1
 91
        4
176
     1
 64
     7
176
     1
 65
   257
176
     1
 75
     1
176
     1
175
     1
176
     1
 42
1.0
176
     1
 92
        8
176
     1
 66
     7
176
     1
 43
1.0
176
     1
 76
     1
176
     1
 77
     6
176
     1
 78
     2
176
     1
 67
     7
176
     1
 79
     5
176
     1
170
     0
176
     1
171
     0
176
     1
290
     0
176
     1
 93
        1
176
     1
 44
-50.0
176
     1
173
     0
176
     1
1001
ACAD
1000
AcDbSavedByObjectVersion
1070
     0
  0
VISUALSTYLE
  5
1DA
102
{ACAD_XDICTIONARY
360
23E
102
}
102
{ACAD_REACTORS
330
13F
102
}
330
13F
100
AcDbVisualStyle
  2
EdgeColorOff
 70
    22
177
     2
291
     1
 71
     2
176
     0
 72
     2
176
     0
 73
     0
176
     0
 90
        0
176
     0
 40
0.6
176
     0
 41
30.0
176
     0
 63
     7
421
 16777215
176
     0
 74
     1
176
     0
 91
        4
176
     0
 64
     7
176
     0
 65
   257
176
     0
 75
     1
176
     0
175
     1
176
     0
 42
1.0
176
     0
 92
        8
176
     2
 66
     7
176
     0
 43
1.0
176
     0
 76
     1
176
     0
 77
     6
176
     0
 78
     2
176
     0
 67
     7
176
     0
 79
     5
176
     0
170
     0
176
     0
171
     0
176
     0
290
     0
176
     0
 93
        1
176
     0
 44
0.0
176
     0
173
     0
176
     0
1001
ACAD
1000
AcDbSavedByObjectVersion
1070
     0
  0
VISUALSTYLE
  5
1D1
102
{ACAD_XDICTIONARY
360
22C
102
}
102
{ACAD_REACTORS
330
13F
102
}
330
13F
100
AcDbVisualStyle
  2
Facepattern
 70
    15
177
     2
291
     1
 71
     2
176
     1
 72
     2
176
     1
 73
     0
176
     1
 90
        0
176
     1
 40
0.6
176
     1
 41
30.0
176
     1
 63
     7
421
 16777215
176
     1
 74
     1
176
     1
 91
        4
176
     1
 64
     7
176
     1
 65
   257
176
     1
 75
     1
176
     1
175
     1
176
     1
 42
1.0
176
     1
 92
        8
176
     1
 66
     7
176
     1
 43
1.0
176
     1
 76
     1
176
     1
 77
     6
176
     1
 78
     2
176
     1
 67
     7
176
     1
 79
     5
176
     1
170
     0
176
     1
171
     0
176
     1
290
     0
176
     1
 93
        1
176
     1
 44
0.0
176
     1
173
     0
176
     1
1001
ACAD
1000
AcDbSavedByObjectVersion
1070
     0
  0
VISUALSTYLE
  5
1C6
102
{ACAD_XDICTIONARY
360
216
102
}
102
{ACAD_REACTORS
330
13F
102
}
330
13F
100
AcDbVisualStyle
  2
Flat
 70
     0
177
     2
291
     1
 71
     2
176
     1
 72
     1
176
     1
 73
     1
176
     1
 90
        2
176
     1
 40
0.6
176
     1
 41
30.0
176
     1
 63
     7
421
 16777215
176
     1
 74
     0
176
     1
 91
        0
176
     1
 64
     7
176
     1
 65
   257
176
     1
 75
     1
176
     1
175
     1
176
     1
 42
1.0
176
     1
 92
        8
176
     1
 66
     7
176
     1
 43
1.0
176
     1
 76
     1
176
     1
 77
     6
176
     1
 78
     2
176
     1
 67
     7
176
     1
 79
     5
176
     1
170
     0
176
     1
171
     0
176
     1
290
     0
176
     1
 93
       13
176
     1
 44
0.0
176
     1
173
     0
176
     1
1001
ACAD
1000
AcDbSavedByObjectVersion
1070
     0
  0
VISUALSTYLE
  5
1C7
102
{ACAD_XDICTIONARY
360
218
102
}
102
{ACAD_REACTORS
330
13F
102
}
330
13F
100
AcDbVisualStyle
  2
FlatWithEdges
 70
     1
177
     2
291
     1
 71
     2
176
     1
 72
     1
176
     1
 73
     1
176
     1
 90
        2
176
     1
 40
0.6
176
     1
 41
30.0
176
     1
 63
     7
421
 16777215
176
     1
 74
     1
176
     1
 91
        0
176
     1
 64
     7
176
     1
 65
   257
176
     1
 75
     1
176
     1
175
     1
176
     1
 42
1.0
176
     1
 92
        0
176
     1
 66
   257
176
     1
 43
1.0
176
     1
 76
     1
176
     1
 77
     6
176
     1
 78
     2
176
     1
 67
     7
176
     1
 79
     5
176
     1
170
     0
176
     1
171
     0
176
     1
290
     0
176
     1
 93
       13
176
     1
 44
0.0
176
     1
173
     0
176
     1
1001
ACAD
1000
AcDbSavedByObjectVersion
1070
     0
  0
VISUALSTYLE
  5
1C8
102
{ACAD_XDICTIONARY
360
21A
102
}
102
{ACAD_REACTORS
330
13F
102
}
330
13F
100
AcDbVisualStyle
  2
Gouraud
 70
     2
177
     2
291
     1
 71
     2
176
     1
 72
     2
176
     1
 73
     1
176
     1
 90
        2
176
     1
 40
0.6
176
     1
 41
30.0
176
     1
 63
     7
421
 16777215
176
     1
 74
     0
176
     1
 91
        0
176
     1
 64
     7
176
     1
 65
   257
176
     1
 75
     1
176
     1
175
     1
176
     1
 42
1.0
176
     1
 92
        0
176
     1
 66
     7
176
     1
 43
1.0
176
     1
 76
     1
176
     1
 77
     6
176
     1
 78
     2
176
     1
 67
     7
176
     1
 79
     5
176
     1
170
     0
176
     1
171
     0
176
     1
290
     0
176
     1
 93
       13
176
     1
 44
0.0
176
     1
173
     0
176
     1
1001
ACAD
1000
AcDbSavedByObjectVersion
1070
     0
  0
VISUALSTYLE
  5
1C9
102
{ACAD_XDICTIONARY
360
21C
102
}
102
{ACAD_REACTORS
330
13F
102
}
330
13F
100
AcDbVisualStyle
  2
GouraudWithEdges
 70
     3
177
     2
291
     1
 71
     2
176
     1
 72
     2
176
     1
 73
     1
176
     1
 90
        2
176
     1
 40
0.6
176
     1
 41
30.0
176
     1
 63
     7
421
 16777215
176
     1
 74
     1
176
     1
 91
        0
176
     1
 64
     7
176
     1
 65
   257
176
     1
 75
     1
176
     1
175
     1
176
     1
 42
1.0
176
     1
 92
        0
176
     1
 66
   257
176
     1
 43
1.0
176
     1
 76
     1
176
     1
 77
     6
176
     1
 78
     2
176
     1
 67
     7
176
     1
 79
     5
176
     1
170
     0
176
     1
171
     0
176
     1
290
     0
176
     1
 93
       13
176
     1
 44
0.0
176
     1
173
     0
176
     1
1001
ACAD
1000
AcDbSavedByObjectVersion
1070
     0
  0
VISUALSTYLE
  5
1CB
102
{ACAD_XDICTIONARY
360
220
102
}
102
{ACAD_REACTORS
330
13F
102
}
330
13F
100
AcDbVisualStyle
  2
Hidden
 70
     6
177
     2
291
     0
 71
     1
176
     1
 72
     2
176
     1
 73
     2
176
     1
 90
        0
176
     1
 40
0.6
176
     1
 41
30.0
176
     1
 63
     7
421
 16777215
176
     1
 74
     2
176
     1
 91
        2
176
     1
 64
     7
176
     1
 65
   257
176
     1
 75
     2
176
     1
175
     1
176
     1
 42
40.0
176
     1
 92
        0
176
     1
 66
   257
176
     1
 43
1.0
176
     1
 76
     1
176
     1
 77
     6
176
     1
 78
     2
176
     1
 67
     7
176
     1
 79
     3
176
     1
170
     0
176
     1
171
     0
176
     1
290
     0
176
     1
 93
        1
176
     1
 44
0.0
176
     1
173
     0
176
     1
1001
ACAD
1000
AcDbSavedByObjectVersion
1070
     0
  0
VISUALSTYLE
  5
1D8
102
{ACAD_XDICTIONARY
360
23A
102
}
102
{ACAD_REACTORS
330
13F
102
}
330
13F
100
AcDbVisualStyle
  2
JitterOff
 70
    20
177
     2
291
     1
 71
     2
176
     0
 72
     2
176
     0
 73
     0
176
     0
 90
        0
176
     0
 40
0.6
176
     0
 41
30.0
176
     0
 63
     7
421
 16777215
176
     0
 74
     1
176
     0
 91
        4
176
     0
 64
     7
176
     0
 65
   257
176
     0
 75
     1
176
     0
175
     1
176
     0
 42
1.0
176
     0
 92
       10
176
     2
 66
     7
176
     0
 43
1.0
176
     0
 76
     1
176
     0
 77
     6
176
     0
 78
     2
176
     0
 67
     7
176
     0
 79
     5
176
     0
170
     0
176
     0
171
     0
176
     0
290
     0
176
     0
 93
        1
176
     0
 44
0.0
176
     0
173
     0
176
     0
1001
ACAD
1000
AcDbSavedByObjectVersion
1070
     0
  0
VISUALSTYLE
  5
1D0
102
{ACAD_XDICTIONARY
360
22A
102
}
102
{ACAD_REACTORS
330
13F
102
}
330
13F
100
AcDbVisualStyle
  2
Linepattern
 70
    14
177
     2
291
     1
 71
     2
176
     1
 72
     2
176
     1
 73
     0
176
     1
 90
        0
176
     1
 40
0.6
176
     1
 41
30.0
176
     1
 63
     7
421
 16777215
176
     1
 74
     1
176
     1
 91
        4
176
     1
 64
     7
176
     1
 65
   257
176
     1
 75
     7
176
     1
175
     7
176
     1
 42
1.0
176
     1
 92
        8
176
     1
 66
     7
176
     1
 43
1.0
176
     1
 76
     1
176
     1
 77
     6
176
     1
 78
     2
176
     1
 67
     7
176
     1
 79
     5
176
     1
170
     0
176
     1
171
     0
176
     1
290
     0
176
     1
 93
        1
176
     1
 44
0.0
176
     1
173
     0
176
     1
1001
ACAD
1000
AcDbSavedByObjectVersion
1070
     0
  0
VISUALSTYLE
  5
1D9
102
{ACAD_XDICTIONARY
360
23C
102
}
102
{ACAD_REACTORS
330
13F
102
}
330
13F
100
AcDbVisualStyle
  2
OverhangOff
 70
    21
177
     2
291
     1
 71
     2
176
     0
 72
     2
176
     0
 73
     0
176
     0
 90
        0
176
     0
 40
0.6
176
     0
 41
30.0
176
     0
 63
     7
421
 16777215
176
     0
 74
     1
176
     0
 91
        4
176
     0
 64
     7
176
     0
 65
   257
176
     0
 75
     1
176
     0
175
     1
176
     0
 42
1.0
176
     0
 92
        9
176
     2
 66
     7
176
     0
 43
1.0
176
     0
 76
     1
176
     0
 77
     6
176
     0
 78
     2
176
     0
 67
     7
176
     0
 79
     5
176
     0
170
     0
176
     0
171
     0
176
     0
290
     0
176
     0
 93
        1
176
     0
 44
0.0
176
     0
173
     0
176
     0
1001
ACAD
1000
AcDbSavedByObjectVersion
1070
     0
  0
VISUALSTYLE
  5
175
102
{ACAD_XDICTIONARY
360
212
102
}
102
{ACAD_REACTORS
330
13F
102
}
330
13F
100
AcDbVisualStyle
  2
Realistic
 70
     8
177
     2
291
     0
 71
     2
176
     1
 72
     2
176
     1
 73
     0
176
     1
 90
        0
176
     1
 40
0.6
176
     1
 41
30.0
176
     1
 63
     7
421
 16777215
176
     1
 74
     1
176
     1
 91
        0
176
     1
 64
     7
176
     1
 65
   257
176
     1
 75
     1
176
     1
175
     1
176
     1
 42
1.0
176
     1
 92
        8
176
     1
 66
     8
424
  7895160
176
     1
 43
1.0
176
     1
 76
     1
176
     1
 77
     6
176
     1
 78
     2
176
     1
 67
     7
176
     1
 79
     5
176
     1
170
     0
176
     1
171
     0
176
     1
290
     0
176
     1
 93
       13
176
     1
 44
0.0
176
     1
173
     0
176
     1
1001
ACAD
1000
AcDbSavedByObjectVersion
1070
     0
  0
VISUALSTYLE
  5
1D7
102
{ACAD_XDICTIONARY
360
238
102
}
102
{ACAD_REACTORS
330
13F
102
}
330
13F
100
AcDbVisualStyle
  2
Shaded
 70
    27
177
     2
291
     0
 71
     2
176
     1
 72
     2
176
     1
 73
     1
176
     1
 90
        2
176
     1
 40
0.6
176
     1
 41
30.0
176
     1
 63
     7
421
 16777215
176
     1
 74
     0
176
     1
 91
        4
176
     1
 64
     7
176
     1
 65
   257
176
     1
 75
     1
176
     1
175
     1
176
     1
 42
1.0
176
     1
 92
        8
176
     1
 66
   257
176
     1
 43
1.0
176
     1
 76
     1
176
     1
 77
     6
176
     1
 78
     2
176
     1
 67
     8
425
  7895160
176
     1
 79
     3
176
     1
170
     0
176
     1
171
     0
176
     1
290
     0
176
     1
 93
        5
176
     1
 44
0.0
176
     1
173
     0
176
     1
1001
ACAD
1000
AcDbSavedByObjectVersion
1070
     0
  0
VISUALSTYLE
  5
1D6
102
{ACAD_XDICTIONARY
360
236
102
}
102
{ACAD_REACTORS
330
13F
102
}
330
13F
100
AcDbVisualStyle
  2
Shaded with edges
 70
    26
177
     2
291
     0
 71
     2
176
     1
 72
     2
176
     1
 73
     1
176
     1
 90
        2
176
     1
 40
0.6
176
     1
 41
30.0
176
     1
 63
     7
421
 16777215
176
     1
 74
     1
176
     1
 91
        2
176
     1
 64
     7
176
     1
 65
   257
176
     1
 75
     2
176
     1
175
     1
176
     1
 42
1.0
176
     1
 92
        8
176
     1
 66
   257
176
     1
 43
1.0
176
     1
 76
     1
176
     1
 77
     6
176
     1
 78
     2
176
     1
 67
     7
176
     1
 79
     3
176
     1
170
     0
176
     1
171
     0
176
     1
290
     0
176
     1
 93
        5
176
     1
 44
0.0
176
     1
173
     0
176
     1
1001
ACAD
1000
AcDbSavedByObjectVersion
1070
     0
  0
VISUALSTYLE
  5
1D3
102
{ACAD_XDICTIONARY
360
230
102
}
102
{ACAD_REACTORS
330
13F
102
}
330
13F
100
AcDbVisualStyle
  2
Shades of Gray
 70
    23
177
     2
291
     0
 71
     2
176
     1
 72
     2
176
     1
 73
     3
176
     1
 90
        0
176
     1
 40
0.6
176
     1
 41
30.0
176
     1
 63
     7
421
 16777215
176
     1
 74
     2
176
     1
 91
        2
176
     1
 64
     7
176
     1
 65
     7
176
     1
 75
     1
176
     1
175
     1
176
     1
 42
40.0
176
     1
 92
        8
176
     1
 66
     7
176
     1
 43
1.0
176
     1
 76
     1
176
     1
 77
     6
176
     1
 78
     2
176
     1
 67
     7
176
     1
 79
     3
176
     1
170
     0
176
     1
171
     0
176
     1
290
     0
176
     1
 93
        1
176
     1
 44
0.0
176
     1
173
     0
176
     1
1001
ACAD
1000
AcDbSavedByObjectVersion
1070
     0
  0
VISUALSTYLE
  5
1D4
102
{ACAD_XDICTIONARY
360
232
102
}
102
{ACAD_REACTORS
330
13F
102
}
330
13F
100
AcDbVisualStyle
  2
Sketchy
 70
    24
177
     2
291
     0
 71
     1
176
     1
 72
     2
176
     1
 73
     2
176
     1
 90
        0
176
     1
 40
0.6
176
     1
 41
30.0
176
     1
 63
     7
421
 16777215
176
     1
 74
     2
176
     1
 91
        2
176
     1
 64
     7
176
     1
 65
     7
176
     1
 75
     1
176
     1
175
     1
176
     1
 42
40.0
176
     1
 92
       11
176
     1
 66
     7
176
     1
 43
1.0
176
     1
 76
     1
176
     1
 77
     6
176
     1
 78
     2
176
     1
 67
     7
176
     1
 79
     6
176
     1
170
     0
176
     1
171
     0
176
     1
290
     0
176
     1
 93
        1
176
     1
 44
0.0
176
     1
173
     0
176
     1
1001
ACAD
1000
AcDbSavedByObjectVersion
1070
     0
  0
VISUALSTYLE
  5
1CF
102
{ACAD_XDICTIONARY
360
228
102
}
102
{ACAD_REACTORS
330
13F
102
}
330
13F
100
AcDbVisualStyle
  2
Thicken
 70
    13
177
     2
291
     1
 71
     2
176
     1
 72
     2
176
     1
 73
     0
176
     1
 90
        0
176
     1
 40
0.6
176
     1
 41
30.0
176
     1
 63
     7
421
 16777215
176
     1
 74
     1
176
     1
 91
        4
176
     1
 64
     7
176
     1
 65
   257
176
     1
 75
     1
176
     1
175
     1
176
     1
 42
1.0
176
     1
 92
       12
176
     1
 66
     7
176
     1
 43
1.0
176
     1
 76
     1
176
     1
 77
     6
176
     1
 78
     2
176
     1
 67
     7
176
     1
 79
     5
176
     1
170
     0
176
     1
171
     0
176
     1
290
     0
176
     1
 93
        1
176
     1
 44
0.0
176
     1
173
     0
176
     1
1001
ACAD
1000
AcDbSavedByObjectVersion
1070
     0
  0
VISUALSTYLE
  5
176
102
{ACAD_XDICTIONARY
360
214
102
}
102
{ACAD_REACTORS
330
13F
102
}
330
13F
100
AcDbVisualStyle
  2
Wireframe
 70
     5
177
     2
291
     0
 71
     0
176
     1
 72
     2
176
     1
 73
     0
176
     1
 90
        0
176
     1
 40
0.6
176
     1
 41
30.0
176
     1
 63
     7
421
 16777215
176
     1
 74
     1
176
     1
 91
        4
176
     1
 64
     7
176
     1
 65
   257
176
     1
 75
     1
176
     1
175
     1
176
     1
 42
1.0
176
     1
 92
        0
176
     1
 66
   257
176
     1
 43
1.0
176
     1
 76
     1
176
     1
 77
     6
176
     1
 78
     2
176
     1
 67
     7
176
     1
 79
     3
176
     1
170
     0
176
     1
171
     0
176
     1
290
     0
176
     1
 93
        1
176
     1
 44
0.0
176
     1
173
     0
176
     1
1001
ACAD
1000
AcDbSavedByObjectVersion
1070
     0
  0
VISUALSTYLE
  5
1D5
102
{ACAD_XDICTIONARY
360
234
102
}
102
{ACAD_REACTORS
330
13F
102
}
330
13F
100
AcDbVisualStyle
  2
X-Ray
 70
    25
177
     2
291
     0
 71
     2
176
     1
 72
     2
176
     1
 73
     1
176
     1
 90
        1
176
     1
 40
0.5
176
     1
 41
30.0
176
     1
 63
     7
421
 16777215
176
     1
 74
     1
176
     1
 91
        0
176
     1
 64
     7
176
     1
 65
   257
176
     1
 75
     1
176
     1
175
     1
176
     1
 42
1.0
176
     1
 92
        8
176
     1
 66
     7
176
     1
 43
1.0
176
     1
 76
     1
176
     1
 77
     6
176
     1
 78
     2
176
     1
 67
     7
176
     1
 79
     3
176
     1
170
     0
176
     1
171
     0
176
     1
290
     0
176
     1
 93
       13
176
     1
 44
0.0
176
     1
173
     0
176
     1
1001
ACAD
1000
AcDbSavedByObjectVersion
1070
     0
  0
DICTIONARYVAR
  5
1C2
102
{ACAD_REACTORS
330
1BB
102
}
330
1BB
100
DictionaryVariables
280
     0
  1
1:1
  0
DICTIONARYVAR
  5
1BD
102
{ACAD_REACTORS
330
1BB
102
}
330
1BB
100
DictionaryVariables
280
     0
  1
STANDARD
  0
DICTIONARYVAR
  5
1BC
102
{ACAD_REACTORS
330
1BB
102
}
330
1BB
100
DictionaryVariables
280
     0
  1
STANDARD
  0
DICTIONARYVAR
  5
1BE
102
{ACAD_REACTORS
330
1BB
102
}
330
1BB
100
DictionaryVariables
280
     0
  1
Imperial24
  0
DICTIONARYVAR
  5
1BF
102
{ACAD_REACTORS
330
1BB
102
}
330
1BB
100
DictionaryVariables
280
     0
  1
Imperial24
  0
DICTIONARYVAR
  5
1C4
102
{ACAD_REACTORS
330
1BB
102
}
330
1BB
100
DictionaryVariables
280
     0
  1
15
  0
DICTIONARYVAR
  5
1C3
102
{ACAD_REACTORS
330
1BB
102
}
330
1BB
100
DictionaryVariables
280
     0
  1
0
  0
DICTIONARYVAR
  5
1C1
102
{ACAD_REACTORS
330
1BB
102
}
330
1BB
100
DictionaryVariables
280
     0
  1
0
  0
DICTIONARYVAR
  5
1C0
102
{ACAD_REACTORS
330
1BB
102
}
330
1BB
100
DictionaryVariables
280
     0
  1
0
  0
XRECORD
  5
1F0
102
{ACAD_REACTORS
330
14B
102
}
330
14B
100
AcDbXrecord
280
     1
  1
_0100-
  1
*0100-*
  1
*
  1
*
 70
     0
  1
*
  1
*
  0
XRECORD
  5
1EF
102
{ACAD_REACTORS
330
14B
102
}
330
14B
100
AcDbXrecord
280
     1
  1
_0280-
  1
*0280-*
  1
*
  1
*
 70
     0
  1
*
  1
*
  0
XRECORD
  5
1F2
102
{ACAD_REACTORS
330
14B
102
}
330
14B
100
AcDbXrecord
280
     1
  1
_Add Alternate
  1
*add*alt*
  1
*
  1
*
 70
     0
  1
*
  1
*
  0
XRECORD
  5
1F3
102
{ACAD_REACTORS
330
14B
102
}
330
14B
100
AcDbXrecord
280
     1
  1
_Bid Alternate
  1
*bid*alt*
  1
*
  1
*
 70
     0
  1
*
  1
*
  0
XRECORD
  5
1F5
102
{ACAD_REACTORS
330
14B
102
}
330
14B
100
AcDbXrecord
280
     1
  1
_Color 253
  1
*
  1
253
  1
*
 70
     0
  1
*
  1
*
  0
XRECORD
  5
1F1
102
{ACAD_REACTORS
330
14B
102
}
330
14B
100
AcDbXrecord
280
     1
  1
_Color 8
  1
*
  1
8
  1
*
 70
     0
  1
*
  1
*
  0
XRECORD
  5
1F4
102
{ACAD_REACTORS
330
14B
102
}
330
14B
100
AcDbXrecord
280
     1
  1
_Color 84
  1
*
  1
84
  1
*
 70
     0
  1
*
  1
*
  0
XRECORD
  5
1FB
102
{ACAD_REACTORS
330
14B
102
}
330
14B
100
AcDbXrecord
280
     1
  1
_Contours
  1
*contour*,*cont-*,*cp cont*,*p-cont*
  1
*
  1
*
 70
     0
  1
*
  1
*
  0
XRECORD
  5
1F6
102
{ACAD_REACTORS
330
14B
102
}
330
14B
100
AcDbXrecord
280
     1
  1
_Demo
  1
*demo*
  1
*
  1
*
 70
     0
  1
*
  1
*
  0
XRECORD
  5
1F7
102
{ACAD_REACTORS
330
14B
102
}
330
14B
100
AcDbXrecord
280
     1
  1
_Existing
  1
*exist*,*ex*
  1
*
  1
*
 70
     0
  1
*
  1
*
  0
XRECORD
  5
1FA
102
{ACAD_REACTORS
330
14B
102
}
330
14B
100
AcDbXrecord
280
     1
  1
_Hardscape
  1
*sidewalk*,*sw*,*curb*,*walk*,*-lip*,*tbc*
  1
*
  1
*
 70
     0
  1
*
  1
*
  0
XRECORD
  5
1ED
102
{ACAD_REACTORS
330
14B
102
}
330
14B
100
AcDbXrecord
280
     1
  1
_IDT
  1
IDT_*
  1
*
  1
*
 70
     0
  1
*
  1
*
  0
XRECORD
  5
1EE
102
{ACAD_REACTORS
330
14B
102
}
330
14B
100
AcDbXrecord
280
     1
  1
_Mask
  1
*MASK*
  1
*
  1
*
 70
     0
  1
*
  1
*
  0
XRECORD
  5
1EC
102
{ACAD_REACTORS
330
14B
102
}
330
14B
100
AcDbXrecord
280
     1
  1
_NoXref
  1
~*|*
  1
*
  1
*
 70
     0
  1
*
  1
*
  0
XRECORD
  5
1F8
102
{ACAD_REACTORS
330
14B
102
}
330
14B
100
AcDbXrecord
280
     1
  1
_Row
  1
*row*
  1
*
  1
*
 70
     0
  1
*
  1
*
  0
XRECORD
  5
1F9
102
{ACAD_REACTORS
330
14B
102
}
330
14B
100
AcDbXrecord
280
     1
  1
_Utility
  1
*ut-*,*utility*,*wat*
  1
*
  1
*
 70
     0
  1
*
  1
*
  0
BLOCKLINEARPARAMETER
  5
48
330
47
100
AcDbEvalExpr
 90
       94
 98
       33
 99
        6
100
AcDbBlockElement
300
Linear
 98
       33
 99
        6
1071
        0
100
AcDbBlockParameter
280
     1
281
     0
100
AcDbBlock2PtParameter
1010
1.185834988647621
1020
0.7358094721253014
1030
0.0
1011
7.68583498864762
1021
0.7358094721253014
1031
0.0
170
     4
 91
        0
 91
       95
 91
        0
 91
        0
171
     0
172
     0
173
     1
 94
       95
303
DisplacementX
174
     1
 95
       95
304
DisplacementY
177
     0
100
AcDbBlockLinearParameter
305
Distance
306

140
0.4467710221744489
307

 96
        1
141
0.0
142
0.0
143
0.0
175
     0
1001
ACAUTHENVIRON
1010
6.281442760423737
1020
1.146972722523634
1030
0.0
  0
BLOCKLINEARGRIP
  5
4A
330
47
100
AcDbEvalExpr
 90
       95
 98
       33
 99
        6
100
AcDbBlockElement
300
End Grip
 98
       33
 99
        6
1071
        0
100
AcDbBlockGrip
 91
       96
 92
       97
1010
7.68583498864762
1020
0.7358094721253014
1030
0.0
280
     1
 93
       -1
100
AcDbBlockLinearGrip
140
6.499999999999999
141
0.0
142
0.0
  0
BLOCKGRIPLOCATIONCOMPONENT
  5
4B
330
47
100
AcDbEvalExpr
 90
       96
 98
       33
 99
        6
  1

 70
    40
140
1.797693134862314E+99
100
AcDbBlockGripExpr
 91
       94
300
UpdatedEndX
  0
BLOCKGRIPLOCATIONCOMPONENT
  5
4C
330
47
100
AcDbEvalExpr
 90
       97
 98
       33
 99
        6
  1

 70
    40
140
1.797693134862314E+99
100
AcDbBlockGripExpr
 91
       94
300
UpdatedEndY
  0
BLOCKSTRETCHACTION
  5
4D
330
47
100
AcDbEvalExpr
 90
      101
 98
       33
 99
        6
100
AcDbBlockElement
300
Width of Detail Label
 98
       33
 99
        6
1071
        0
100
AcDbBlockAction
 70
     1
 91
       84
 71
     3
330
4A
330
55
330
56
1010
6.354099035747804
1020
0.8904686700187992
1030
0.0
100
AcDbBlockStretchAction
 92
       94
301
EndXDelta
 93
       94
302
EndYDelta
 72
     2
1011
8.140667050423285
1021
0.1782017419132522
1011
7.07335512639052
1021
1.265659163177787
 73
     2
331
55
 74
     1
 94
        1
331
56
 74
     2
 94
        0
 94
        1
 75
     0
140
1.0
141
0.0
280
     0
  0
FIELD
  5
28
102
{ACAD_REACTORS
330
27
102
}
330
27
100
AcDbField
  1
_text
  2
%<\_FldIdx 0>% - %<\_FldIdx 1>%
 90
        2
360
29
360
2A
 97
        0
 91
       63
 92
        0
 94
        9
 95
        2
 96
        0
300

 93
        2
  6
ACFD_FIELDTEXT_ATTDEF
 93
        2
 90
        1
 91
        1
 94
        0
300

302

304
ACVALUE_END
  6
ACFD_FIELDTEXT_CHECKSUM
 93
        2
 90
        2
140
99440.0
 94
        0
300

302

304
ACVALUE_END
  7
ACFD_FIELD_VALUE
 93
        3
 90
        0
 94
        0
300

302

304
ACVALUE_END
301

 98
        0
  0
FIELD
  5
38
102
{ACAD_REACTORS
330
37
102
}
330
37
100
AcDbField
  1
_text
  2
%<\_FldIdx 0>% - %<\_FldIdx 1>%
 90
        2
360
39
360
3A
 97
        0
 91
       63
 92
        0
 94
        9
 95
        2
 96
        0
300

 93
        1
  6
ACFD_FIELDTEXT_CHECKSUM
 93
        2
 90
        2
140
13147.0
 94
        0
300

302

304
ACVALUE_END
  7
ACFD_FIELD_VALUE
 93
        3
 90
        0
 94
        0
300

302

304
ACVALUE_END
301

 98
        0
  0
ACDB_BLOCKREPRESENTATION_DATA
  5
44
102
{ACAD_REACTORS
330
43
102
}
330
43
100
AcDbBlockRepresentationData
 70
     1
340
45
  0
DICTIONARY
  5
5B
102
{ACAD_REACTORS
330
43
102
}
330
43
100
AcDbDictionary
280
     1
281
     1
  3
ACAD_ENHANCEDBLOCKDATA
360
5C
  0
DICTIONARY
  5
244
330
1DF
100
AcDbDictionary
280
     1
281
     1
  3
ACAD_XREC_ROUNDTRIP
360
245
  0
DICTIONARY
  5
148
330
147
100
AcDbDictionary
280
     1
281
     1
  0
DICTIONARY
  5
169
330
168
100
AcDbDictionary
280
     1
281
     1
  3
BUMPTILE
360
16A
  3
DIFFUSETILE
360
16B
  3
OPACITYTILE
360
16C
  3
REFLECTIONTILE
360
16D
  3
REFRACTIONTILE
360
16E
  3
SPECULARTILE
360
16F
  0
DICTIONARY
  5
161
330
160
100
AcDbDictionary
280
     1
281
     1
  3
BUMPTILE
360
162
  3
DIFFUSETILE
360
163
  3
OPACITYTILE
360
164
  3
REFLECTIONTILE
360
165
  3
REFRACTIONTILE
360
166
  3
SPECULARTILE
360
167
  0
DICTIONARY
  5
10
330
E
100
AcDbDictionary
280
     1
281
     1
  3
BUMPTILE
360
11
  3
DIFFUSETILE
360
12
  3
FBXASSET
360
13
  3
OPACITYTILE
360
14
  3
REFLECTIONTILE
360
15
  3
REFRACTIONTILE
360
16
  3
SPECULARTILE
360
17
  0
DICTIONARY
  5
202
330
115
100
AcDbDictionary
280
     1
281
     1
  3
ACAD_XREC_ROUNDTRIP
360
203
  0
DICTIONARY
  5
240
330
1DB
100
AcDbDictionary
280
     1
281
     1
  3
ACAD_XREC_ROUNDTRIP
360
241
  0
DICTIONARY
  5
242
330
1DD
100
AcDbDictionary
280
     1
281
     1
  3
ACAD_XREC_ROUNDTRIP
360
243
  0
DICTIONARY
  5
174
330
173
100
AcDbDictionary
280
     1
281
     1
  3
ACAD_ROUNDTRIP_2008_TABLESTYLE_CELLSTYLEMAP
360
1FE
  0
DICTIONARY
  5
210
330
13E
100
AcDbDictionary
280
     1
281
     1
  3
ACAD_XREC_ROUNDTRIP
360
211
  0
DICTIONARY
  5
21E
330
1CA
100
AcDbDictionary
280
     1
281
     1
  3
ACAD_XREC_ROUNDTRIP
360
21F
  0
DICTIONARY
  5
226
330
1CE
100
AcDbDictionary
280
     1
281
     1
  3
ACAD_XREC_ROUNDTRIP
360
227
  0
DICTIONARY
  5
22E
330
1D2
100
AcDbDictionary
280
     1
281
     1
  3
ACAD_XREC_ROUNDTRIP
360
22F
  0
DICTIONARY
  5
222
330
1CC
100
AcDbDictionary
280
     1
281
     1
  3
ACAD_XREC_ROUNDTRIP
360
223
  0
DICTIONARY
  5
224
330
1CD
100
AcDbDictionary
280
     1
281
     1
  3
ACAD_XREC_ROUNDTRIP
360
225
  0
DICTIONARY
  5
23E
330
1DA
100
AcDbDictionary
280
     1
281
     1
  3
ACAD_XREC_ROUNDTRIP
360
23F
  0
DICTIONARY
  5
22C
330
1D1
100
AcDbDictionary
280
     1
281
     1
  3
ACAD_XREC_ROUNDTRIP
360
22D
  0
DICTIONARY
  5
216
330
1C6
100
AcDbDictionary
280
     1
281
     1
  3
ACAD_XREC_ROUNDTRIP
360
217
  0
DICTIONARY
  5
218
330
1C7
100
AcDbDictionary
280
     1
281
     1
  3
ACAD_XREC_ROUNDTRIP
360
219
  0
DICTIONARY
  5
21A
330
1C8
100
AcDbDictionary
280
     1
281
     1
  3
ACAD_XREC_ROUNDTRIP
360
21B
  0
DICTIONARY
  5
21C
330
1C9
100
AcDbDictionary
280
     1
281
     1
  3
ACAD_XREC_ROUNDTRIP
360
21D
  0
DICTIONARY
  5
220
330
1CB
100
AcDbDictionary
280
     1
281
     1
  3
ACAD_XREC_ROUNDTRIP
360
221
  0
DICTIONARY
  5
23A
330
1D8
100
AcDbDictionary
280
     1
281
     1
  3
ACAD_XREC_ROUNDTRIP
360
23B
  0
DICTIONARY
  5
22A
330
1D0
100
AcDbDictionary
280
     1
281
     1
  3
ACAD_XREC_ROUNDTRIP
360
22B
  0
DICTIONARY
  5
23C
330
1D9
100
AcDbDictionary
280
     1
281
     1
  3
ACAD_XREC_ROUNDTRIP
360
23D
  0
DICTIONARY
  5
212
330
175
100
AcDbDictionary
280
     1
281
     1
  3
ACAD_XREC_ROUNDTRIP
360
213
  0
DICTIONARY
  5
238
330
1D7
100
AcDbDictionary
280
     1
281
     1
  3
ACAD_XREC_ROUNDTRIP
360
239
  0
DICTIONARY
  5
236
330
1D6
100
AcDbDictionary
280
     1
281
     1
  3
ACAD_XREC_ROUNDTRIP
360
237
  0
DICTIONARY
  5
230
330
1D3
100
AcDbDictionary
280
     1
281
     1
  3
ACAD_XREC_ROUNDTRIP
360
231
  0
DICTIONARY
  5
232
330
1D4
100
AcDbDictionary
280
     1
281
     1
  3
ACAD_XREC_ROUNDTRIP
360
233
  0
DICTIONARY
  5
228
330
1CF
100
AcDbDictionary
280
     1
281
     1
  3
ACAD_XREC_ROUNDTRIP
360
229
  0
DICTIONARY
  5
214
330
176
100
AcDbDictionary
280
     1
281
     1
  3
ACAD_XREC_ROUNDTRIP
360
215
  0
DICTIONARY
  5
234
330
1D5
100
AcDbDictionary
280
     1
281
     1
  3
ACAD_XREC_ROUNDTRIP
360
235
  0
FIELD
  5
29
330
28
100
AcDbField
  1
AcVar
  2
\AcVar Filename \f "%tc1%fn6"
 90
        0
 97
        0
 91
       63
 92
        0
 94
       59
 95
        2
 96
        0
300

 93
        1
  6
Variable
 93
        2
 90
        4
  1
Filename
 94
        0
300

302

304
ACVALUE_END
  7
ACFD_FIELD_VALUE
 93
        4
 90
        4
  1
O:\LP\DRIPDTLS2\Details\LandscapeProducts-EMITTER PLACEMENT.dxf
 94
        0
300
%tc1%fn6
302
LANDSCAPEPRODUCTS-EMITTER PLACEMENT.DXF
304
ACVALUE_END
301
LANDSCAPEPRODUCTS-EMITTER PLACEMENT.DXF
 98
       39
  0
FIELD
  5
2A
330
28
100
AcDbField
  1
AcVar
  2
\AcVar CreateDate \f "MMMM d, yyyy"
 90
        0
 97
        0
 91
       63
 92
        0
 94
       59
 95
        2
 96
        0
300

 93
        1
  6
Variable
 93
        2
 90
        4
  1
CreateDate
 94
        0
300

302

304
ACVALUE_END
  7
ACFD_FIELD_VALUE
 93
        4
 90
        8
 92
       16
310
E107060002001400070029001D000000
 94
        0
300
MMMM d, yyyy
302
June 20, 2017
304
ACVALUE_END
301
June 20, 2017
 98
       13
  0
FIELD
  5
39
330
38
100
AcDbField
  1
AcVar
  2
\AcVar ctab \f "%tc1"
 90
        0
 97
        0
 91
       63
 92
        0
 94
       59
 95
        2
 96
        0
300

 93
        1
  6
Variable
 93
        2
 90
        4
  1
ctab
 94
        0
300

302

304
ACVALUE_END
  7
ACFD_FIELD_VALUE
 93
        4
 90
        4
  1
Model
 94
        0
300
%tc1
302
MODEL
304
ACVALUE_END
301
MODEL
 98
        5
  0
FIELD
  5
3A
330
38
100
AcDbField
  1
AcVar
  2
\AcVar PlotDate \f "MMMM d, yyyy"
 90
        0
 97
        0
 91
       63
 92
        0
 94
       59
 95
       32
 96
        0
300

 93
        1
  6
Variable
 93
        2
 90
        4
  1
PlotDate
 94
        0
300

302

304
ACVALUE_END
  7
ACFD_FIELD_VALUE
 93
        4
 90
        8
 92
       16
310
E107060002001400070021002F000000
 94
        0
300
MMMM d, yyyy
302
June 20, 2017
304
ACVALUE_END
301
June 20, 2017
 98
       13
  0
DICTIONARY
  5
5C
102
{ACAD_REACTORS
330
5B
102
}
330
5B
100
AcDbDictionary
280
     1
281
     1
  3
101
360
5D
  3
94
360
5E
  0
XRECORD
  5
245
102
{ACAD_REACTORS
330
244
102
}
330
244
100
AcDbXrecord
280
     1
102
DISPLAYNAME
  1
Imperial24
102
FLAGS
 90
        0
  0
XRECORD
  5
16A
102
{ACAD_REACTORS
330
169
102
}
330
169
100
AcDbXrecord
280
     1
270
     1
271
     1
  0
XRECORD
  5
16B
102
{ACAD_REACTORS
330
169
102
}
330
169
100
AcDbXrecord
280
     1
270
     1
271
     1
  0
XRECORD
  5
16C
102
{ACAD_REACTORS
330
169
102
}
330
169
100
AcDbXrecord
280
     1
270
     1
271
     1
  0
XRECORD
  5
16D
102
{ACAD_REACTORS
330
169
102
}
330
169
100
AcDbXrecord
280
     1
270
     1
271
     1
  0
XRECORD
  5
16E
102
{ACAD_REACTORS
330
169
102
}
330
169
100
AcDbXrecord
280
     1
270
     1
271
     1
  0
XRECORD
  5
16F
102
{ACAD_REACTORS
330
169
102
}
330
169
100
AcDbXrecord
280
     1
270
     1
271
     1
  0
XRECORD
  5
162
102
{ACAD_REACTORS
330
161
102
}
330
161
100
AcDbXrecord
280
     1
270
     1
271
     1
  0
XRECORD
  5
163
102
{ACAD_REACTORS
330
161
102
}
330
161
100
AcDbXrecord
280
     1
270
     1
271
     1
  0
XRECORD
  5
164
102
{ACAD_REACTORS
330
161
102
}
330
161
100
AcDbXrecord
280
     1
270
     1
271
     1
  0
XRECORD
  5
165
102
{ACAD_REACTORS
330
161
102
}
330
161
100
AcDbXrecord
280
     1
270
     1
271
     1
  0
XRECORD
  5
166
102
{ACAD_REACTORS
330
161
102
}
330
161
100
AcDbXrecord
280
     1
270
     1
271
     1
  0
XRECORD
  5
167
102
{ACAD_REACTORS
330
161
102
}
330
161
100
AcDbXrecord
280
     1
270
     1
271
     1
  0
XRECORD
  5
11
102
{ACAD_REACTORS
330
10
102
}
330
10
100
AcDbXrecord
280
     1
270
     1
271
     1
  0
XRECORD
  5
12
102
{ACAD_REACTORS
330
10
102
}
330
10
100
AcDbXrecord
280
     1
270
     1
271
     1
  0
XRECORD
  5
13
102
{ACAD_REACTORS
330
10
102
}
330
10
100
AcDbXrecord
280
     1
 70
     1
 90
1959938040
 71
     1
  1
B0075ABF-600D-4568-A1B6-57B33EDC541B
311
504B0304140006080800AE513C46810AF72FD9000000200100004F00000039374433444535352D383138382D343444432D394331362D3645303933363131343938332F4173736574446174612F446566696E6974696F6E4974657261746F7250726F706572746965732E62696E454E3D4FC3400C3D18400C0CFC83AAFB711F
311
49481AB545841426586062A9DC8B5B225D922A97488C8CFC6B6A8BA25A7A7EFE7CF68F10E2F768148A33C237F96BE2676CB1AFDD9BFBC406C405577CB7017F79EA9D53C869895B18FDC05B2F7570E83DB4D88DE1E6343A69602039F0B7BC7445F82F0456D8FD1DE3FBAF047E8919AA7D7E0F21E0B050DBCD977A489FA222B2
311
A92C57592CE3B4D0B2489295BCB3B372F668E3A83489EA317463EF3028ABF4FAA8BCDEB7BBBA5ACE87BAC1490B0D2EA6AE47FAA99A2EAD3689D446DAECDDE8DC44B9CD3EE68A270F504B0304140006080800AE513C46261B46F7F8000000300200004500000039374433444535352D383138382D343444432D394331362D36
311
45303933363131343938332F4173736574446174612F496E7374616E636550726F706572746965732E62696EEB606060F80F0540260323103700495E20ED9E9A975A94991C9C9C919A9BA802147032303037757472D335333070D1353135B3D075347432D3353577323676757136353174624768046931363471713532B5D4
311
35353131D635313332D475727372D13534373670367376B67474B5042A03DBCBA019D37FE8ABC6157B20CD04146B0062181F4C03F940F0C11EA29A8141C08141002C0426541C106CAC2CA046088033B02A030AC2157C6006F21A8018AAF50194E6010A610250382264E08660284CD9E98021862280A91564B406929A0FF62C
311
401E28B6F88038B83CB1243943D7A928312F25350524432C58015408C233201AC071814F2F00504B0304140006080800AE513C4628BB58AF800100009E0500003D00000039374433444535352D383138382D343444432D394331362D3645303933363131343938332F536368656D61732F436F6D6D6F6E536368656D612E78
311
6D6CBD544D4FC23018BEFB2B96DE15493C78601010A34B880709DEDFB52FD0D8B54BD70DF6EFED3AC0B12E6442E2716BFB3CEFF3D18E26FB440405EA8C2B1992E1C323095052C5B8DC842437EBFB673219DF8DA659866649B798C078B48AE6410122242F2A4994AC7F93815DF85C049C8564CA0A901499DD886B2EB9B1E024
311
48F358701A9235880C49A0119892A20C89D1B9FD768815CAD268CB5E0355B40B1E47F3E37A2020464BED06AA57CE8FCC20C3C3446D46761A2632A8C1283D07031EFF2AE7CCB1BFEEE916E406DFAC8E36FFD99A9D60A6944090EEDC3B670C7DC13DE86B6B2C5C240D6E503BB85ACD579D513F1B9F9A69DC9CC22AFA80C426D4
311
0AF0B21EA168559156B6276F0F726A6BFF04DCD513A87A62CAD41FB24FCB2858B3952E3D852084DA25B9303C15687973CC8E8AAE11DF2836C38C6A9E765E8C1BA1BFB1DC29CDFE518C8B5A7655A4ED7E77291ABEB80DBD82EC866ADE1B8D05AF9E35CF09D7A061F38A986D9EC412B8F0F65E5D81534D9B231D1E5A8FE577A2
311
41F3A5FD01504B0304140006080800AE513C462CCEBD668A040000E01200003E00000039374433444535352D383138382D343444432D394331362D3645303933363131343938332F536368656D61732F47656E65726963536368656D612E786D6CD5586D6FDB380CFE7EBF42F0F7A649B70E1B90744856B4970F450FCD7A5F
311
05459613EDE4174872DADCAF3F522F8ED3B88D2F1D06AC4050DBA2493EE4438AF2F8EB73AEC8466823CB62928C06C384888297A92C5693A4B6D9D9E7E4EBD51FE3A931C22EF85AE4EC6AFC38BF261BA626C9AD288496DC3F4FCEAFC63366845F7A10452AF41DB320C0D44EC26EAB20918735565582695670811A6A49643A49
311
A6E9069FA4604A64B29016DC4B48552F95E4932463CA888468C1D2B250DB4962750DF7CE273069CE8363F1FF4EDB00E0A21999574AE4A2B00C353B93F3BD4777B8A61ED8F604ABFEDD79CE56A2B7BDFBDBC50996E0ADDE16FED26223C5D30956C29BDF4A55EA686E5E58B112DA45CE67F76F4FA27EFA3FB672FD7372FC388F
311
AECDCA5209E693CAD167BADCD272F943701B3812F8A3D852008B1D2E32DB927B2F833C6EA95879925356D254582695095A3CE982924720BE5774A3CB9CDCDB350427D2DF20DA1B5532EBE2D5D6288D75D4F7E4FD9890A0EF8E3D93EBB8F8BA4758158EF6FB90A6F9520281C93DE7AAC6D24607DA296BB96018123F821A7D6A
311
5C5884050C475DA4865442732C8B95684A50165CBB3A32F25F783A4A480ED59AD7F924B968AEA50131F46303223E6A397B0E52976030DC1DCA81D7E7C1EDEEA42C19FF27635C505E2BD5198A599020DF50A2330FCB3AAF28CB0124108429553EF1B228802E2265D8F7CC2401042B155BCC7070F1E5C55F13B4A9577362CCCE
311
46C32174E010C3C378C44841A4BDA00FE3A12006CE11EE6AEC59894D3526DDE1CD59D503ECC324017F8061B7F162162FA62EDD81AE3308617770796DCBDAD2B2625C5AE8A63DE20B2C8AA5E95E76E5730823955956E33E705425A2187C185D36489A1B44D3DCEC2172F6BA2105C3546287A7194B2331768EBBE64F6E70A993
311
0ABE0ADEA89E9E2C38523B810287AD67A54A039C1606EAFE68F8304610BB9093DBDDABC0B2AE4E290DCDA15376D7E39F72B556F0B32EAB5D3D498B4C41ABADEC3A1434C422D87E8025A84BDCB2B1417ED750FAE4DA8976863974C577C7F902D3F156AD354DEA3540DE6BEAE2BEA52F7A2EB4CA43802ECE5BF2CE2EDC934717
311
9FFB023CE412E60BE16DA0BE29B374988A553F561DC04615DD35F7D2C8979F60E5955CE93DF29DED8AFA1EE6642D53418086C03C47C377910F75F7E8F5EF665F70B60FFB22AEDF897D119E8423C773E819A3C1E55E550599EE6EDCA34D0C86FD72057DF2CD46F16A470682471C164E4346D5306BF12D7D12D82CFF673D4163
311
6C347443FEB51B50D72EA171A8E4A58623A4A16E0FA2B8B10A0D23268D87C33896EE8FB73305A74BF224EDBADFA0BD674AB354D63DB7BD5D83426761C077DE767728235446A552754EB93B755891C3C4CC6CADE37CF0E912A7BB38DBA010F9DE1282EDF470CA69A9CDA482E334C4A6EA4107987980B17E72F31730EBF88BBD
311
39E7C629F56797A3C0009C2C5AE7951D9A05A02773440F02EEB4DE396A3B6A570C72CCFBCD823B0B8ED3F1D5CEDDFED772FA70236C83FB7D86C385D570B87107535572A60A96035F8F7C6A7192F13007246BBE0521855E6AC46F3E27689CEE7D186A6FD679D98CDCAD13333E04EBE7ED6F55FF01504B0304140006080800AE
311
513C466180134D5F0100006B0300004500000039374433444535352D383138382D343444432D394331362D3645303933363131343938332F536368656D61732F52656E6465724D6174657269616C536368656D612E786D6CA5934D6FC2300C86EFFB1551EEE343DBA41D1A103009551ADAD40EAE28A4A68D9426284961FCFB
311
E5A340113B2071746D3F765EBF4DC6BFB5407BD0862B49F0B037C0082453059725C18DDD3EBFE3F1E829991803366715D474942CD30FB4A782E00C64017A412D684E454CE3FE28995203B162A6EA5AC94B66997D225E109CD63B0135484BAD1B3C07E9080CA35DB3119C11BCA5C200461A68A1A438126C75E3E230D40FF81F
311
B3F03C91D1E3A3A0AF79FE28E25BC39EC3E17E4C2A2D94A0833A51AF55BCCA7D88572FCBAC529C4140B020FC3AAFA886621DCED7EAD7664CC86024E806DC297DA1BB393E4156543457A4537DB8817349A70F8ACBF09B3EEE2CB2F33E91B65D60786E4E3B39B77E3FEEEF5650424525DA657FB8B46BE6BF064646F0A0F7327C
311
0BC1BC1B4CBBC1C419FA3CCB23500007872A2580CAAE5461865565294E4EDB4617B62FF579DF9A5B2F54E834076A597573A020912FED777F9B3F504B0304140006080800AE513C46AA0AEC9751000000570000004700000039374433444535352D383138382D343444432D394331362D3645303933363131343938332F4173
311
736574446174612F41737365745461626C654F66436F6E74656E74732E62696E536160607032303037757472D335333070D1353135B3D075347432D33535773236767571363531741202AACB4D2C492DCA4CCC492C28484D2C4ACC4B4E050A82012F90744FCD03CA26072767A4E6260200504B0304140006080800AE513C46
311
F865834058000000680000004500000039374433444535352D383138382D343444432D394331362D3645303933363131343938332F4173736574446174612F53747265616D56657273696F6E5461626C652E696E66558CBD0A80300C06F73E4B117FB66E451741D041DC5BF98480A492E4FDD18EAEC7DD4555D89EF28DF51A
311
0B1BD8340C4DE7DD848B988C0ACF0649566493F2408C508DDEBB99D5129FF8F1AF8CF5B9503E20FAE5A16B5AF702504B0304140006080800AE513C46972D876E340100009A0400003600000039374433444535352D383138382D343444432D394331362D3645303933363131343938332F4173736574446174612F636E782E
311
786D6CCD94314FC3301085FF4AE43D76528454558E2B044B2790A818D8AECEA5B5EAD8917D41F0EFB1930CA022A60E5DCFEFCECF9FFC4E6E3F7B5B7C6088C6BB86D5BC62053AED5BE38E0D1BA92BD7ACD82A19BCA71F325638E8B161B9CC943C063F0E4BA9C50E469BABD6B8F3527C8811690F078BCFDDA377848E222BB485
311
181B16F5097BE030926F319E790B04BCE601A31F83C634894C8FCB241D10085BA656557D5F5675B95AEFEB6A53DF6D56EB7729B252C983F776D19B7459F043A1E75B99AAA4C8C74A8EC12C9AFC16A6FEF2C80FC64991944A460A89C9D2415F43EA8061B046032574C26B422A9308A19762162B2932835F249EB033CEE4965D
311
3206E4C34BB287810CDE1C91FFBC5E9FCCCE4502A7F176795C3ABC3E85D7E907BDCD819C12736B39B974C88DEBAE901231AD91149ABC55D437504B0304140006080800AE513C4697C91AF4080100004F0300003400000039374433444535352D383138382D343444432D394331362D3645303933363131343938332F536368
311
656D61732F636E782E786D6CCD93BD6EC32014855F05B1DB185795AC08932143A72E6DA76E146E5214CCB5F8A9DAB72FB80C89D4AD1DB2C1E1133AE77011FBCFC5910F08D1A29F29EF074AC06B34D69F669AD3B19B28D94B1110D3054689570BCCB4CA548A53C0BC36C9C05165575567FDB989075C16F4CFFA1D164589762A
311
C699C66DDBAB9CD0403CF74625D5F33E40C41C34941B925DA0DDA003A80486CA71E0F7DDC0BB717AE1C38EDFEDC6E955B04A4AF186E81A6F7D82802BD15816BED81904ABC752E4601B53335079E9AD2F6D08560829620AA58346A6AFB5906A5D9DD52A95AAD806FE3052B01AF52AF003780856DF66E22B73FF16F909BC81F0
311
585E2958E56E33F96F1EFF5600DB66BF8C40FD0AF21B504B0304140006080800AE513C46410A3D5871000000A40000002C00000039374433444535352D383138382D343444432D394331362D3645303933363131343938332F636E782E786D6C55CC4D0E82301086E1AB34B31774E7A22D31F1069E60020334B633A63FC6E3
311
4B0909B07DDE2F9FEE7EC1AB2FC5E4840DDC9A2B28E25E06C7938192C7CB1D54677514C9871928C640062A83D55394F2D968A0118BAFEA1DBF377CA444F98919176EAB9FEAAB9F2960DA5BBB1E2ED3FA6FFF504B0304140006080800AE513C4685D646DC7D000000A300000007000000636E782E786D6C4D8C410AC3201405
311
AF227F6F1BD15805358B988384C604A9D16263E9F1AB258BAE1E0C6F460D9F3DA0B7CB2F9FA20672E900B9784F8B8F9B8672AC58001A8CCA291D7F374071DE9D8686C1A82DA7F23CD1E2D6B98446838F8F13CA9BA576EA7B2C881098313B6239128EF9D449CA096152D06A5C9B52E7D7ABDBF2E60B504B0304140006080800
311
AE513C4616E99B5DA600000035010000130000005B436F6E74656E745F54797065735D2E786D6C9590410E82301045AFD2740F4517C6180A0BF5065E60AC53688469D30E066F6F91AD9AB89CF9FFFD3F99BA9DC7413C3026E749CB4D59498164FCCD51A7E5C4B6D84BD136F5E5193089ECA5A465CF1C0E4A25D3E308A9F401
311
292BD6C711388FB15301CC1D3A54DBAADA29E38991B8E0254336F5092D4C038BF39CD76B6FC6A538AEBEA54A4B08617006389FA516557DE4AE8E7E70DE30729138228C5F021CD93F02D4FB0DCD0B504B0304140006080800AE513C463DEE336E64000000790000001B0000006175746F6465736B2D64657369676E2D706163
311
6B6167652E786D6C35CBC10E83200C00D05F21DCA56CA76D41FC96062B120735B69A7DBE268BB7777961F8D5AF396893C2ADB70FE7ADA196782C2DF776D7A97B5933C430F15651E5469C55D70F80A4992A3ADC954792C525AE70A1E4D6AD9816CC044FEFDF01FE3FDE907802504B0304140006080800AE513C46CF8452A6F9
311
000000960100003700000039374433444535352D383138382D343444432D394331362D3645303933363131343938332F4173736574446174612F636F72652E786D6C8550CB6EC32010FC156BEFD8063FEA449828CDE30B7AEA0D01715162B07854FDFC42EC4AEDA9A75DCDCECCEE0E3D7CCD8FE25339AFAD1901973514CA08
311
2BB5994688E18606280E8C3A6BC32F1A1486CF6A840C03A393B371D920614D5026A3C64AB581DC7B15A0108FD48CE0C5879A79C963480C7F2F172EEE7C52252E571EA3316AB949B54C6EFAA6950346DAE678ED07829AEBE5825A8C4F68B7BB74E88574A7A66F5FCF7D5BD32A8B190D7AFED92E9CE241C9A4AF71876A8CC8F0
311
86EB3D6EF66478A7556632EA834B3F6F4BF377C08EF9EA330F9C56EBF48F6B5CE4FFAE519BD090CD75557860381DF91C305AE594527946986A4E947D03504B0304140006080800AE513C463556020DF8000000940100003500000039374433444535352D383138382D343444432D394331362D364530393336313134393833
311
2F536368656D61732F636F72652E786D6C8550CB6E833010FC15B47703368F92C8386A53F203EDA9370B3BC44AB0911F553FBF3650A93DF5B4ABD999D9DDA1A7AFF9917D4AEB94D13DE0BC844CEAD108A5A71E82BFA20EB213A3D618FF8B0699E6B3EC21C1C0E8644D58766834DA4B9D506D84DC41EE9CF4908D8FD8F4E0C6
311
9B9C79CE838F0C77CF173EDEF924739C6F3C46435062972A11DDD455490B8CD4D5F3A5ED08AA2EC3806A8CCFE870181AF4449A73D5D62FAF6D5DD2228919F56AFED93E5AC9BD14515FE206951891EE1D97475C1D49F7418BC464D4791B7FDE97A6EF80BDAD773A5A6CB33F9E6111FF7B06A57D4576CF4DE180E178E23A60B4
311
4819C5B206186BCA937D03504B0304140006080800AE513C464FEE611D00010000D70100002D00000039374433444535352D383138382D343444432D394331362D3645303933363131343938332F636F72652E786D6C9591CB6EC32010457FC59A3DB6F123C511268B387FD05577D44C1C94182C1E553FBFB876D576D7AE40
311
977367B833FCF43E3FB237745E5BD303CD4BC8D08C566933F510C39530C84E823B6BC30F0C322367EC619541F0C9D9B8ECD2684D40B3AAC62ADC45E93D06C8C647BAF4E0C71BCE32973124C2DFF3458E7739614EF38D133CE8F9CB3A3A94011588AAA42D2929A9D8332D8FB43E56EC85172B2978D426D4D5DE0CE75754995D
311
428A04A2E5C5F69AA8A8D5CE6895FEA8AF1A1D88EE69A8874BDB124619234D339C4977A60772B8945D7DA0B4E9589D8A24B3E03EB83499BDC83A83BFDA37E3AF647151FF4CB6393C08FA1DAA58C72C78F1B98374AE2B111F504B0304140006080800AE513C465269FEAF06010000B201000008000000636F72652E786D6C8D
311
50CB6EC32010FC15C41DDBE0479D0813B5A9F3053DF5460D71506CB07844EDDF17122AB5B79E16CD6367587AF85C177093D629A307888B0A02A92723949E0718FC19F5101C18B5C6F85F3208345FE500130C199DAD095B8626A3BDD409D546C80C72E7A487605AE263806EBAC895173CF8A870D762E3D395CFB2C0C543C7A8
311
57EB8F75B2927B292023156E518511E9DF70B5C7F59EF4EFB44C4A46435022472911D3D559491B2D4DFD7CEA7A82EAD338A206E323DAEDC6163D91F65877CDCB6BD754B44C66469DB7F1CF7949ECE981E3B7944BCB07C5E887314B16C4520218BD7C41163724E24FE9B0897F9456DAD7242F7C381C643816BA1331385D308E
311
FB79E34CD766DF504B01021400140006080800AE513C46810AF72FD9000000200100004F000000000000000000000000000000000039374433444535352D383138382D343444432D394331362D3645303933363131343938332F4173736574446174612F446566696E6974696F6E4974657261746F7250726F706572746965
311
732E62696E504B01021400140006080800AE513C46261B46F7F80000003002000045000000000000000000000000004601000039374433444535352D383138382D343444432D394331362D3645303933363131343938332F4173736574446174612F496E7374616E636550726F706572746965732E62696E504B0102140014
311
0006080800AE513C4628BB58AF800100009E0500003D00000000000000000000000000A102000039374433444535352D383138382D343444432D394331362D3645303933363131343938332F536368656D61732F436F6D6D6F6E536368656D612E786D6C504B01021400140006080800AE513C462CCEBD668A040000E01200
311
003E000000000000000000000000007C04000039374433444535352D383138382D343444432D394331362D3645303933363131343938332F536368656D61732F47656E65726963536368656D612E786D6C504B01021400140006080800AE513C466180134D5F0100006B030000450000000000000000000000000062090000
311
39374433444535352D383138382D343444432D394331362D3645303933363131343938332F536368656D61732F52656E6465724D6174657269616C536368656D612E786D6C504B01021400140006080800AE513C46AA0AEC9751000000570000004700000000000000000000000000240B000039374433444535352D383138
311
382D343444432D394331362D3645303933363131343938332F4173736574446174612F41737365745461626C654F66436F6E74656E74732E62696E504B01021400140006080800AE513C46F865834058000000680000004500000000000000000000000000DA0B000039374433444535352D383138382D343444432D394331
311
362D3645303933363131343938332F4173736574446174612F53747265616D56657273696F6E5461626C652E696E66504B01021400140006080800AE513C46972D876E340100009A0400003600000000000000000000000000950C000039374433444535352D383138382D343444432D394331362D36453039333631313439
311
38332F4173736574446174612F636E782E786D6C504B01021400140006080800AE513C4697C91AF4080100004F03000034000000000000000000000000001D0E000039374433444535352D383138382D343444432D394331362D3645303933363131343938332F536368656D61732F636E782E786D6C504B01021400140006
311
080800AE513C46410A3D5871000000A40000002C00000000000000000000000000770F000039374433444535352D383138382D343444432D394331362D3645303933363131343938332F636E782E786D6C504B01021400140006080800AE513C4685D646DC7D000000A3000000070000000000000000000000000032100000
311
636E782E786D6C504B01021400140006080800AE513C4616E99B5DA6000000350100001300000000000000000000000000D41000005B436F6E74656E745F54797065735D2E786D6C504B01021400140006080800AE513C463DEE336E64000000790000001B00000000000000000000000000AB1100006175746F6465736B2D
311
64657369676E2D7061636B6167652E786D6C504B01021400140006080800AE513C46CF8452A6F90000009601000037000000000000000000000000004812000039374433444535352D383138382D343444432D394331362D3645303933363131343938332F4173736574446174612F636F72652E786D6C504B010214001400
311
06080800AE513C463556020DF80000009401000035000000000000000000000000009613000039374433444535352D383138382D343444432D394331362D3645303933363131343938332F536368656D61732F636F72652E786D6C504B01021400140006080800AE513C464FEE611D00010000D70100002D00000000000000
311
000000000000E114000039374433444535352D383138382D343444432D394331362D3645303933363131343938332F636F72652E786D6C504B01021400140006080800AE513C465269FEAF06010000B201000008000000000000000000000000002C160000636F72652E786D6C504B050600000000110011005A0600005817
311
00000000
310
504B0304140006080800AE513C46000000000000000000000000370000006662782F44354639393937432D434545432D344535412D384532422D4432314336334137344141372F617474726962757465732E62696E504B0304140006080800AE513C46000000000000000000000000350000006662782F4435463939393743
310
2D434545432D344535412D384532422D4432314336334137344141372F76657274696365732E62696E504B0304140006080800AE513C46F270F1330600000004000000360000006662782F44354639393937432D434545432D344535412D384532422D4432314336334137344141372F747269616E676C65732E62696E6366
310
60600000504B0304140006080800AE513C4651464CB48900000043010000360000006662782F44354639393937432D434545432D344535412D384532422D4432314336334137344141372F6469726563746F72792E786D6C9D8F310EC2300C45AF127987122606C71DD918B841D4B851A43646695A717C52A85029031293A5
310
A76FBF6FACEF7DA7264E43906840EF0FA03836E242F406C6DCEE4EA06AC22492573150D1F66C60C640E8938CB705396EEDD86DE9B5042FE27813D640EA63BB001C722AF6E55CB61E4863F58284D5D3F53DD715CE1C3985E63FD7F1B7EBDD617E9F1E504B0304140006080800AE513C4610E80CC339070000201C0000340000
310
006662782F44354639393937432D434545432D344535412D384532422D4432314336334137344141372F6F626A656374732E786D6CDD596D6FDB3610FE2B84F665FBA037CB76E2427111DB496114698B1A1DF64DA065DAE1A2379052E2ECD7EF4891B224CBB6D2B540B104481C863ADE3D77F7DCF1E4BFDFC7117A268CD334
310
B9315CCB311049C2744393DD8D51E45BF3DA40EFA7C867699AD7F61928C131B931C4B231F5772C2D32B5B4215B5C44EDD5FBD95F88872421060A23CCF98DC1C34712630B1779BA21FCC9DAE01C5BBBEDDE72AD726353EC8EE1ECB17554861949725015D61390A234709B7F8249F6D4B7C586C6B641BF6DDE996DB634BCA928
310
4D788E93F048AB969C413FAD3C77B8B81B8C26E66838F4CCE178E09AB3FBD9C274AF3C673E9ECF27B77713034DFD759A46950332926CC08BAFC6D4F56DF19FCA7C854297DE619A24245468766DD810259712DEC6A401AC2B4DAB39A4B4B5B6E0F534FEC4B65EA034546AA0AD8DD3BFEBD19BAEFF0610789F28659C8828E739
310
035F2BECCB7C707CBB5C6DF8857214E39C308A2314D135C30C1C045B4B0735C4886C11A290C04C7A51CBABEB0A817D3997BAB4DC165124F2D798CA4C0B201F49CEA566F41FC20EDAD74F039DC0DA8226F9B532367FCD40C4C4B7E562F93F6FA0FE590289B611DE41B4809962933768E135175CB05C18D38FF7EBFD4AF043F7
310
E1194B33C2721179329955DE690FD6420B82AF072825AE4DDF1D50F90AD07F02E42B5D900F9E63743FDC0FB5ED0C277C9BB218BC831C643AF0C341E2E3D127DFAE1E9E22D4E0CA539842DAFE204C1B6634CEAE413AF59F21E853E629E356218E20A61F6822F21C020545292C01DF6FD77B63BA04328545780A47603D7CFBB6
310
F888E0572907F8A6E5A12EFAEDE1289D30ED3C3BF8EA03C40CA361E5AA868DA7F01DFD107C6F17AB8FAB826D71481E54622FC89626348762DAAD5003F446CA7F5B7E921979644F635708E7EC52411C1D7E5929BF20E9185045D4E1D23572E58142BA47114E485A70B5DE4554611AA52C58BF06650E779EF5A70E82F230C86F
310
11019D6406D53D643413A01853655EC584D60127C1832A0077A55383350E9F04BC41088CF53D7A40D462D6165AC45980E3B448047D1F8777DB34CB73E497EB4E06CE64703D196B63B914AFB3475343A5BC3827C6D98943E60D6F29D6D092CB3C1A025B76591042CF54E4419AE190E6DDB1D032426528807D56E50DDD6E0B0E
310
A4DE094B4B63CB7347C8A9FDAC0E39AFBD3A24A031DE91608B4585EB3CAF0150255C5BD089CC2E4A39A709E1B2433962AE162A8E054450C6AD96DA1184940731C9F1F7C49F2C79ADF063641B05D04BE5A29BBD1C7D5A41553D4F49149D5B9A04D2FED780E3388BCA2EED1206EEA0754227AE426971C433C45B80F3C0D910D9
310
745F925EF182C6B797F4C9778B3F010FC33F1D1E7D0485D61B6AE465CFBAD6C89D88AF6B2095F1C8F5AEB4232E61A58FCA450F1215D03585AFC10BA1BBC77E84D6EB1C4EA26D40A3A88883B21EE42486160CE705EB95AFE39173E47CC50BAD84A89DB4A51134C8BD4953F61EBAFB00AB64F3718A346BC7805134813B5A2F43
310
8EACE80C61E90B791F15D7AECBDE7FBBD4FFCC97F57BCA13797D49D9A653D3661BA13B30DD3008BA5415AE8A232979EAD7932F961797CB380CB510C56FE52D41450823CF540C26E40DA8F3FEC05F701E0291AEE46F730619B1219B434FD110A7C61CC6140ED5D2749F5ABFE900D989F2D168BC96825063983660C1B30FE243
310
F41583ABA1F3E3B6EA6AEC727D290A9B058395831E67647DFEB06A498195DE4F7F111891979604B53A178DDC1951DF96877EB5254159F46D79E6F1FCB188D709A6A2328AB0C09BECDD7B7997BCB1E1A260DF5EDD7B336F70652EEEAE87E6F06AE698B3D1E8CE1C0F268BC97C30F416EEC86684A7050B09B707B613E8DE294B
310
763A304AE8FADC2860AA70F9EAA7E3B9EDE0FFF18D224AD7F8542CFEAA178AAADD130D592B17FB5E283A897AFDB6EEDF3D22EAEE22F6A6CEB99C15E8003F5FB6808C74BDEFDF5A68D1BA93E8D6B95611DF58784FDE567E7A8D69107A677D68ECE8A2FC2617C3ECA9A34AE9DBADE4B599E35C8D6E67F7E6D87116E67034BE36
310
6FDDD9D81C5DCD3CEF6E311F0DDD5985B8AA857DEBCA2FC1A15AD9DA180DA6C13C8D280CE5C906ED480A3720983AF4E05716132E6F36D000A832AEDF08F478FAB99CA9E6781DE9A7C3470C83E94855E42284A128DC3A6E0CB58E7E8331A89844CAE194F504854745BB810A466F0C08819C427DB1D630CE92C34329BD35AE04
310
B7E16427EE4CE553D5DF87C7043A102B07BBAA3D7D70519635A2138603997C4F006CA71B92EF375DAB83700E1FD7455E1973583858A340D02F044AE360EAF7A4E0DD03F19CB7CBB5E49E0624BD26F367E3A0946AE698EDE478BD86F7EDE28B2D26E3CBCF288B8A9D70E7B97ADF90648A3E232ACA21940F81A1CCCCB0B887CF
310
DFD95F580AAF9862744F2108D0EFFBEBF11FF63C8DE3342997EC5BF5A20AAD1EE1B5D3C6D6233F685C1CE86364DFA3C6FA30B7E2C4C21BFE040BE05A46C56CB484B81100153DD502407B44F8021E6BEC5F2E902A02B516B6DEBA0A78E44C1F4122897739226DEA1B6A0348C805D0AA9CD3561FF4826F3318824FFF05504B03
310
04140006080800AE513C4694E47E0F3D01000046050000300000006662782F44354639393937432D434545432D344535412D384532422D4432314336334137344141372F636E782E786D6CCD94C16A032110865F45BCAFEEA61442700DE4D027E8A1F4E6BA93AD8DAB8B8EA579FB6ABA495B4A4A0F81E426E33FF07F333F23
310
D6EFA3256F10A2F1AEA50DAB2901A77D6FDCD0D284DB6A49C95A8AE03D7E9351E2D4082D2D652AC5107C9AE6520F5B956CA95AE37673512106D325844889B62AC69646FD02A3622AA1EF21EE58AF50B18605883E050DB91FCD0873BF0EA0107A2A1775735FD54DB5583E36F5AAB95B2D96CF8217A5149DF776D61B8710FC44
310
B4CF0F97CDD482976F295230B3A61050F9E58C75C6099EFFA588D9AD1B661DEEA7A29B266BB4C23C26EE35025659046A14FC532C052FBC3FA81F364F4707A4370134FAB0BFD2009A73033819633909FFE33F08FFC6F6DD6BC6BDD6B6CFC2CEB62E867A4C6BCC71FDBDFF9C22E5067B7BA13F19BB7CE6F32941A36F0FF9E8EB
310
42C4FC70F2F2D2CB05941F504B0304140006080800AE513C46ABFCD77A7F000000A30000000B0000006662782F636E782E786D6C4D8CD10E822018465F85FDF7549A866C8023A4F770898E85D0485A8F1F342FBAFAB6B3EF1CD67F5687DE26BE6CF01CAAC30990F1F73059BF7048DB8C3B40BD603184EDEF06C88FABE15030
310
08B6C4909E3B9ACC3C2657A8B3FEB1C3A1BD514A89C24A6B851BDD4ADCE9FA8A87BA5297B3248D94241BC7A2E4F9F5F296BCF802504B0304140006080800AE513C46A6D797065F0000008200000007000000636E782E786D6C4DCB3B0E80201045D1AD90E9FD7516806B51190811670C8A61F982B1B0BAC9C97B72CA7B1037
310
C6D3332918DA1E04D2CAC69353902EDB8C20262D23F3F59B81A079470595414B17391D1F19B4730A5583A7ED43BBE4025D9592775E5ADFFA01504B0304140006080800AE513C464FEB6A7CA0000000F4000000130000005B436F6E74656E745F54797065735D2E786D6C7D8F4B0EC2300C44AF1279DFA6B0400835ED02B801
310
1730C16D239A8F121795DB93D02D6269CFBC19BBED573B8B17C564BC53B0AB1B10E4B47F18372A5878A88E20FAAEBDBD032591BD2E299898C349CAA427B2986A1FC86565F0D122E7318E32A07EE24872DF3407A9BD63725C71C980AEBDD080CBCCE2BAE6F5D69B7110E7CD57AA146008B3D1C8F92C5954F993BB1BF787F39A
310
89ABC491D09600F9FDA2FB00504B0304140006080800AE513C463DEE336E64000000790000001B0000006175746F6465736B2D64657369676E2D7061636B6167652E786D6C35CBC10E83200C00D05F21DCA56CA76D41FC96062B120735B69A7DBE268BB7777961F8D5AF396893C2ADB70FE7ADA196782C2DF776D7A97B5933
310
C430F15651E5469C55D70F80A4992A3ADC954792C525AE70A1E4D6AD9816CC044FEFDF01FE3FDE907802504B0304140006080800AE513C46618FA336F8000000960100003B0000006662782F44354639393937432D434545432D344535412D384532422D4432314336334137344141372F7265736F75726365732F636F7265
310
2E786D6C8550CB6EC32010FC158B3B36E0D871224CE436CA17F4D41B828D8B1283C5A3EAE71712576A4F3D2D9A9D9965869FBE967BF5093E186747446B822AB0CA6963E711A578C503AA4E827BE7E22F1AAAAC5C6044054682CFDEA5758394B3116C41ADD3B081320488A852F7FC1851501FB0C85AA69819E156AF52DDE40C
310
35AD9F3CC153327A931A9DDDCCD5804782B2F3E532F57BBCEB19C1BBA923F8F07AE8F17426EDD052DA4DFB17DE14B1E0D12C3FD79507194123C108ED30A1980D6F941C697B64C33B6F0A53F0107DCEBC1D2DE990F0105CF20A026F9EDB3FAE69D5FFBB266363CB36D7A722E41CF9938F85E04D69298F4785799646C537504B
310
0304140006080800AE513C46BCBF30EBF3000000B1010000310000006662782F44354639393937432D434545432D344535412D384532422D4432314336334137344141372F636F72652E786D6C8D50CB6E833010FC15B4770336A190C838A2847E414FBD59C6A156828DFCA8FAF9B50395DA5B4E6BCDCE7866879EBF977BF6
310
25AD53467780F31232A98599949E3B08FE8A5AC8CE8C5A63FC1F1A649A2FB2830403A3B33561DD2161B4973AA1DA4C7207B973D24326EEF1D181139F72E1390F3E32DC2D5FB9B8F159E638DF788C7AB5FC4A8595DCCB091829718D4A8C48FB8ECB13AE4EA4FDA04562321A829A762B3545777555D202BBD46FC7E3B119D030
310
8E033A8C758FDA91BCA20BC1C34BD53787BE6F6891C48C3A6FE3CDFB27E9BA67E59BF05FE6B04E4F6456DA576437DC140E188E791E0B468B54601C8F76E34C65B31F504B0304140006080800AE513C4652CDAF0853010000DD0200000C0000006662782F636F72652E786D6C8D52DB6E842014FC15C33B0ABAF7201BDBCD7E
310
419FFAC6226BC92A1804B39F5FF012EB43B78D09923967E69C9940CECFA68E7A613AA9550E708C402414D7A554550E9CBDC30388CE9418ADED8F361029D6881C0418505219EDDA09E25A59A102AA74292690759DB020E2B5BFE4A0E35FA2613173D677748FB865FCC12A11E378ECA3C439594E54597A357997C2008AD3CBF5
310
5AECF670B34B11DC145B048FEFC71D2C2E283B64186F8BFD1B490299122B9B793A37825951029A22BC8508C3F4F081D10967A7F4F04992D04949678DF73C0D0DEE00BDDF9E2419F1959E6BCBBFF59C54364B27BD91D179077EBDA1404912F2F1BF21BC75867EB0CFCFB25B3D5B7878A817DC6AB3F19552BBA5D4B3DA092F8D
310
A2E123C958F5CA83C06F3AE90B9DD71A3E28A62ABF1AB3FE7A73364C5FEFD40A037BFB8C94360DAB97E5C615977319B4B234D3B9AEB5F90F7BB63A8799848749BF01504B0304140006080800AE513C46A5F5236707010000B201000008000000636F72652E786D6C8D50416EC32010FC0AE28E0D38769C0813B98DF2829E7A
310
A3401C141B2C83A3F6F785984AEDADA74533B33BC3B0D3E73482875EBC71B683A4C010682B9D3276E8E01AAEA885E0C4D9E25CF82583C08A497730C190B36171EB9C21E96CD036A1D6299D41E1BD0E10C8313E3AE8E54D4FA2106B880A7F2F6621EF62D00529361D67C14C3FAB72D122680539C5A4469820DABE117C24D591
310
B6EFAC4C4ACED6D5A86C6554743757A317C8093D5F2E7DB347BB8662B4EB6B8C0EAF8706F5675CB5152175BF7F61655AE6CC8725FE391F893903F0E2917C59B9519C7D383766410CA580B3E317E4989589F8137A9DD53F421B1B2A9A0F6E1B3E668E819E44344E0DC6F1AC37CED436FF06504B01021400140006080800AE51
310
3C460000000000000000000000003700000000000000000000000000000000006662782F44354639393937432D434545432D344535412D384532422D4432314336334137344141372F617474726962757465732E62696E504B01021400140006080800AE513C46000000000000000000000000350000000000000000000000
310
0000550000006662782F44354639393937432D434545432D344535412D384532422D4432314336334137344141372F76657274696365732E62696E504B01021400140006080800AE513C46F270F13306000000040000003600000000000000000000000000A80000006662782F44354639393937432D434545432D34453541
310
2D384532422D4432314336334137344141372F747269616E676C65732E62696E504B01021400140006080800AE513C4651464CB489000000430100003600000000000000000000000000020100006662782F44354639393937432D434545432D344535412D384532422D4432314336334137344141372F6469726563746F72
310
792E786D6C504B01021400140006080800AE513C4610E80CC339070000201C00003400000000000000000000000000DF0100006662782F44354639393937432D434545432D344535412D384532422D4432314336334137344141372F6F626A656374732E786D6C504B01021400140006080800AE513C4694E47E0F3D010000
310
4605000030000000000000000000000000006A0900006662782F44354639393937432D434545432D344535412D384532422D4432314336334137344141372F636E782E786D6C504B01021400140006080800AE513C46ABFCD77A7F000000A30000000B00000000000000000000000000F50A00006662782F636E782E786D6C
310
504B01021400140006080800AE513C46A6D797065F0000008200000007000000000000000000000000009D0B0000636E782E786D6C504B01021400140006080800AE513C464FEB6A7CA0000000F40000001300000000000000000000000000210C00005B436F6E74656E745F54797065735D2E786D6C504B01021400140006
310
080800AE513C463DEE336E64000000790000001B00000000000000000000000000F20C00006175746F6465736B2D64657369676E2D7061636B6167652E786D6C504B01021400140006080800AE513C46618FA336F8000000960100003B000000000000000000000000008F0D00006662782F44354639393937432D43454543
310
2D344535412D384532422D4432314336334137344141372F7265736F75726365732F636F72652E786D6C504B01021400140006080800AE513C46BCBF30EBF3000000B10100003100000000000000000000000000E00E00006662782F44354639393937432D434545432D344535412D384532422D4432314336334137344141
310
372F636F72652E786D6C504B01021400140006080800AE513C4652CDAF0853010000DD0200000C00000000000000000000000000221000006662782F636F72652E786D6C504B01021400140006080800AE513C46A5F5236707010000B201000008000000000000000000000000009F110000636F72652E786D6C504B050600
310
0000000E000E0080040000CC1200000000
  0
XRECORD
  5
14
102
{ACAD_REACTORS
330
10
102
}
330
10
100
AcDbXrecord
280
     1
270
     1
271
     1
  0
XRECORD
  5
15
102
{ACAD_REACTORS
330
10
102
}
330
10
100
AcDbXrecord
280
     1
270
     1
271
     1
  0
XRECORD
  5
16
102
{ACAD_REACTORS
330
10
102
}
330
10
100
AcDbXrecord
280
     1
270
     1
271
     1
  0
XRECORD
  5
17
102
{ACAD_REACTORS
330
10
102
}
330
10
100
AcDbXrecord
280
     1
270
     1
271
     1
  0
XRECORD
  5
203
102
{ACAD_REACTORS
330
202
102
}
330
202
100
AcDbXrecord
280
     1
102
ACAD_ROUNDTRIP_2012_MLEADER_STYLE
298
     1
  0
XRECORD
  5
241
102
{ACAD_REACTORS
330
240
102
}
330
240
100
AcDbXrecord
280
     1
102
ACAD_ROUNDTRIP_2012_MLEADER_STYLE
298
     1
  0
XRECORD
  5
243
102
{ACAD_REACTORS
330
242
102
}
330
242
100
AcDbXrecord
280
     1
102
DISPLAYNAME
  1
Imperial24
102
FLAGS
 90
        0
  0
CELLSTYLEMAP
  5
1FE
102
{ACAD_REACTORS
330
174
102
}
330
174
100
AcDbCellStyleMap
 90
        3
300
CELLSTYLE
  1
TABLEFORMAT_BEGIN
 90
        5
170
     1
 91
        0
 92
    32768
 62
   257
 93
        1
300
CONTENTFORMAT
  1
CONTENTFORMAT_BEGIN
 90
        0
 91
        0
 92
      512
 93
        0
300

 40
0.0
140
1.0
 94
        5
 62
     0
340
14E
144
0.25
309
CONTENTFORMAT_END
171
     0
 94
        0
309
TABLEFORMAT_END
  1
CELLSTYLE_BEGIN
 90
        1
 91
        1
300
_TITLE
309
CELLSTYLE_END
300
CELLSTYLE
  1
TABLEFORMAT_BEGIN
 90
        5
170
     1
 91
        0
 92
        0
 62
   257
 93
        1
300
CONTENTFORMAT
  1
CONTENTFORMAT_BEGIN
 90
        0
 91
        0
 92
      512
 93
        0
300

 40
0.0
140
1.0
 94
        5
 62
     0
340
14E
144
0.18
309
CONTENTFORMAT_END
171
     0
 94
        0
309
TABLEFORMAT_END
  1
CELLSTYLE_BEGIN
 90
        2
 91
        1
300
_HEADER
309
CELLSTYLE_END
300
CELLSTYLE
  1
TABLEFORMAT_BEGIN
 90
        5
170
     1
 91
        0
 92
        0
 62
   257
 93
        1
300
CONTENTFORMAT
  1
CONTENTFORMAT_BEGIN
 90
        0
 91
        0
 92
      512
 93
        0
300

 40
0.0
140
1.0
 94
        2
 62
     0
340
14E
144
0.18
309
CONTENTFORMAT_END
171
     0
 94
        0
309
TABLEFORMAT_END
  1
CELLSTYLE_BEGIN
 90
        3
 91
        2
300
_DATA
309
CELLSTYLE_END
  0
XRECORD
  5
211
102
{ACAD_REACTORS
330
210
102
}
330
210
100
AcDbXrecord
280
     1
102
RTVSPost2010Prop28
280
     1
102
RTVSPost2010PropOp28
 70
     1
102
RTVSPost2010Prop29
280
     1
102
RTVSPost2010PropOp29
 70
     1
102
RTVSPost2010Prop30
280
     0
102
RTVSPost2010PropOp30
 70
     1
102
RTVSPost2010Prop31
280
     0
102
RTVSPost2010PropOp31
 70
     1
102
RTVSPost2010Prop32
280
     0
102
RTVSPost2010PropOp32
 70
     1
102
RTVSPost2010Prop33
280
     0
102
RTVSPost2010PropOp33
 70
     1
102
RTVSPost2010Prop34
280
     0
102
RTVSPost2010PropOp34
 70
     1
102
RTVSPost2010Prop35
280
     0
102
RTVSPost2010PropOp35
 70
     1
102
RTVSPost2010Prop36
280
     0
102
RTVSPost2010PropOp36
 70
     1
102
RTVSPost2010Prop37
 90
       50
102
RTVSPost2010PropOp37
 70
     1
102
RTVSPost2010Prop38
140
0.0
102
RTVSPost2010PropOp38
 70
     1
102
RTVSPost2010Prop39
140
1.0
102
RTVSPost2010PropOp39
 70
     1
102
RTVSPost2010Prop40
 90
        0
102
RTVSPost2010PropOp40
 70
     1
102
RTVSPost2010Prop41ColorIndex
 90
       18
102
RTVSPost2010Prop41ColorRGB
 90
        0
102
RTVSPost2010PropOp41
 70
     1
102
RTVSPost2010Prop42
 90
       50
102
RTVSPost2010PropOp42
 70
     1
102
RTVSPost2010Prop43
 90
        3
102
RTVSPost2010PropOp43
 70
     1
102
RTVSPost2010Prop44ColorIndex
 90
        5
102
RTVSPost2010Prop44ColorRGB
 90
      255
102
RTVSPost2010PropOp44
 70
     1
102
RTVSPost2010Prop45
280
     0
102
RTVSPost2010PropOp45
 70
     1
102
RTVSPost2010Prop46
 90
       50
102
RTVSPost2010PropOp46
 70
     1
102
RTVSPost2010Prop47
 90
       50
102
RTVSPost2010PropOp47
 70
     1
102
RTVSPost2010Prop48
 90
       50
102
RTVSPost2010PropOp48
 70
     1
102
RTVSPost2010Prop49
280
     0
102
RTVSPost2010PropOp49
 70
     1
102
RTVSPost2010Prop50
 90
       50
102
RTVSPost2010PropOp50
 70
     1
102
RTVSPost2010Prop51ColorIndex
 90
      256
102
RTVSPost2010Prop51ColorRGB
 90
-16777216
102
RTVSPost2010PropOp51
 70
     0
102
RTVSPost2010Prop52
140
1.0
102
RTVSPost2010PropOp52
 70
     0
102
RTVSPost2010Prop53
 90
        2
102
RTVSPost2010PropOp53
 70
     1
102
RTVSPost2010Prop54
  1
strokes_ogs.tif
102
RTVSPost2010PropOp54
 70
     1
102
RTVSPost2010Prop55
280
     0
102
RTVSPost2010PropOp55
 70
     1
102
RTVSPost2010Prop56
140
1.0
102
RTVSPost2010PropOp56
 70
     1
102
RTVSPost2010Prop57
140
1.0
102
RTVSPost2010PropOp57
 70
     1
  0
XRECORD
  5
21F
102
{ACAD_REACTORS
330
21E
102
}
330
21E
100
AcDbXrecord
280
     1
102
RTVSPost2010Prop28
280
     0
102
RTVSPost2010PropOp28
 70
     1
102
RTVSPost2010Prop29
280
     1
102
RTVSPost2010PropOp29
 70
     1
102
RTVSPost2010Prop30
280
     1
102
RTVSPost2010PropOp30
 70
     1
102
RTVSPost2010Prop31
280
     0
102
RTVSPost2010PropOp31
 70
     1
102
RTVSPost2010Prop32
280
     0
102
RTVSPost2010PropOp32
 70
     1
102
RTVSPost2010Prop33
280
     0
102
RTVSPost2010PropOp33
 70
     1
102
RTVSPost2010Prop34
280
     0
102
RTVSPost2010PropOp34
 70
     1
102
RTVSPost2010Prop35
280
     0
102
RTVSPost2010PropOp35
 70
     1
102
RTVSPost2010Prop36
280
     0
102
RTVSPost2010PropOp36
 70
     1
102
RTVSPost2010Prop37
 90
       50
102
RTVSPost2010PropOp37
 70
     1
102
RTVSPost2010Prop38
140
0.0
102
RTVSPost2010PropOp38
 70
     1
102
RTVSPost2010Prop39
140
1.0
102
RTVSPost2010PropOp39
 70
     1
102
RTVSPost2010Prop40
 90
        0
102
RTVSPost2010PropOp40
 70
     1
102
RTVSPost2010Prop41ColorIndex
 90
       18
102
RTVSPost2010Prop41ColorRGB
 90
        0
102
RTVSPost2010PropOp41
 70
     1
102
RTVSPost2010Prop42
 90
       50
102
RTVSPost2010PropOp42
 70
     1
102
RTVSPost2010Prop43
 90
        3
102
RTVSPost2010PropOp43
 70
     1
102
RTVSPost2010Prop44ColorIndex
 90
        5
102
RTVSPost2010Prop44ColorRGB
 90
      255
102
RTVSPost2010PropOp44
 70
     1
102
RTVSPost2010Prop45
280
     0
102
RTVSPost2010PropOp45
 70
     1
102
RTVSPost2010Prop46
 90
       50
102
RTVSPost2010PropOp46
 70
     1
102
RTVSPost2010Prop47
 90
       50
102
RTVSPost2010PropOp47
 70
     1
102
RTVSPost2010Prop48
 90
       50
102
RTVSPost2010PropOp48
 70
     1
102
RTVSPost2010Prop49
280
     0
102
RTVSPost2010PropOp49
 70
     1
102
RTVSPost2010Prop50
 90
       50
102
RTVSPost2010PropOp50
 70
     1
102
RTVSPost2010Prop51ColorIndex
 90
      256
102
RTVSPost2010Prop51ColorRGB
 90
-16777216
102
RTVSPost2010PropOp51
 70
     0
102
RTVSPost2010Prop52
140
1.0
102
RTVSPost2010PropOp52
 70
     0
102
RTVSPost2010Prop53
 90
        2
102
RTVSPost2010PropOp53
 70
     1
102
RTVSPost2010Prop54
  1
strokes_ogs.tif
102
RTVSPost2010PropOp54
 70
     1
102
RTVSPost2010Prop55
280
     0
102
RTVSPost2010PropOp55
 70
     1
102
RTVSPost2010Prop56
140
1.0
102
RTVSPost2010PropOp56
 70
     1
102
RTVSPost2010Prop57
140
1.0
102
RTVSPost2010PropOp57
 70
     1
  0
XRECORD
  5
227
102
{ACAD_REACTORS
330
226
102
}
330
226
100
AcDbXrecord
280
     1
102
RTVSPost2010Prop28
280
     0
102
RTVSPost2010PropOp28
 70
     1
102
RTVSPost2010Prop29
280
     1
102
RTVSPost2010PropOp29
 70
     1
102
RTVSPost2010Prop30
280
     1
102
RTVSPost2010PropOp30
 70
     1
102
RTVSPost2010Prop31
280
     0
102
RTVSPost2010PropOp31
 70
     1
102
RTVSPost2010Prop32
280
     0
102
RTVSPost2010PropOp32
 70
     1
102
RTVSPost2010Prop33
280
     0
102
RTVSPost2010PropOp33
 70
     1
102
RTVSPost2010Prop34
280
     0
102
RTVSPost2010PropOp34
 70
     1
102
RTVSPost2010Prop35
280
     0
102
RTVSPost2010PropOp35
 70
     1
102
RTVSPost2010Prop36
280
     0
102
RTVSPost2010PropOp36
 70
     1
102
RTVSPost2010Prop37
 90
       50
102
RTVSPost2010PropOp37
 70
     1
102
RTVSPost2010Prop38
140
0.0
102
RTVSPost2010PropOp38
 70
     1
102
RTVSPost2010Prop39
140
1.0
102
RTVSPost2010PropOp39
 70
     1
102
RTVSPost2010Prop40
 90
        0
102
RTVSPost2010PropOp40
 70
     1
102
RTVSPost2010Prop41ColorIndex
 90
       18
102
RTVSPost2010Prop41ColorRGB
 90
        0
102
RTVSPost2010PropOp41
 70
     1
102
RTVSPost2010Prop42
 90
       50
102
RTVSPost2010PropOp42
 70
     1
102
RTVSPost2010Prop43
 90
        3
102
RTVSPost2010PropOp43
 70
     1
102
RTVSPost2010Prop44ColorIndex
 90
        5
102
RTVSPost2010Prop44ColorRGB
 90
      255
102
RTVSPost2010PropOp44
 70
     1
102
RTVSPost2010Prop45
280
     0
102
RTVSPost2010PropOp45
 70
     1
102
RTVSPost2010Prop46
 90
       50
102
RTVSPost2010PropOp46
 70
     1
102
RTVSPost2010Prop47
 90
       50
102
RTVSPost2010PropOp47
 70
     1
102
RTVSPost2010Prop48
 90
       50
102
RTVSPost2010PropOp48
 70
     1
102
RTVSPost2010Prop49
280
     0
102
RTVSPost2010PropOp49
 70
     1
102
RTVSPost2010Prop50
 90
       50
102
RTVSPost2010PropOp50
 70
     1
102
RTVSPost2010Prop51ColorIndex
 90
      256
102
RTVSPost2010Prop51ColorRGB
 90
-16777216
102
RTVSPost2010PropOp51
 70
     0
102
RTVSPost2010Prop52
140
1.0
102
RTVSPost2010PropOp52
 70
     0
102
RTVSPost2010Prop53
 90
        2
102
RTVSPost2010PropOp53
 70
     1
102
RTVSPost2010Prop54
  1
strokes_ogs.tif
102
RTVSPost2010PropOp54
 70
     1
102
RTVSPost2010Prop55
280
     0
102
RTVSPost2010PropOp55
 70
     1
102
RTVSPost2010Prop56
140
1.0
102
RTVSPost2010PropOp56
 70
     1
102
RTVSPost2010Prop57
140
1.0
102
RTVSPost2010PropOp57
 70
     1
  0
XRECORD
  5
22F
102
{ACAD_REACTORS
330
22E
102
}
330
22E
100
AcDbXrecord
280
     1
102
RTVSPost2010Prop28
280
     0
102
RTVSPost2010PropOp28
 70
     1
102
RTVSPost2010Prop29
280
     1
102
RTVSPost2010PropOp29
 70
     1
102
RTVSPost2010Prop30
280
     1
102
RTVSPost2010PropOp30
 70
     1
102
RTVSPost2010Prop31
280
     0
102
RTVSPost2010PropOp31
 70
     1
102
RTVSPost2010Prop32
280
     0
102
RTVSPost2010PropOp32
 70
     1
102
RTVSPost2010Prop33
280
     0
102
RTVSPost2010PropOp33
 70
     1
102
RTVSPost2010Prop34
280
     0
102
RTVSPost2010PropOp34
 70
     1
102
RTVSPost2010Prop35
280
     0
102
RTVSPost2010PropOp35
 70
     1
102
RTVSPost2010Prop36
280
     0
102
RTVSPost2010PropOp36
 70
     1
102
RTVSPost2010Prop37
 90
       50
102
RTVSPost2010PropOp37
 70
     1
102
RTVSPost2010Prop38
140
0.0
102
RTVSPost2010PropOp38
 70
     1
102
RTVSPost2010Prop39
140
1.0
102
RTVSPost2010PropOp39
 70
     1
102
RTVSPost2010Prop40
 90
        0
102
RTVSPost2010PropOp40
 70
     1
102
RTVSPost2010Prop41ColorIndex
 90
       18
102
RTVSPost2010Prop41ColorRGB
 90
        0
102
RTVSPost2010PropOp41
 70
     1
102
RTVSPost2010Prop42
 90
       50
102
RTVSPost2010PropOp42
 70
     1
102
RTVSPost2010Prop43
 90
        3
102
RTVSPost2010PropOp43
 70
     1
102
RTVSPost2010Prop44ColorIndex
 90
        5
102
RTVSPost2010Prop44ColorRGB
 90
      255
102
RTVSPost2010PropOp44
 70
     1
102
RTVSPost2010Prop45
280
     0
102
RTVSPost2010PropOp45
 70
     1
102
RTVSPost2010Prop46
 90
       50
102
RTVSPost2010PropOp46
 70
     1
102
RTVSPost2010Prop47
 90
       50
102
RTVSPost2010PropOp47
 70
     1
102
RTVSPost2010Prop48
 90
       50
102
RTVSPost2010PropOp48
 70
     1
102
RTVSPost2010Prop49
280
     0
102
RTVSPost2010PropOp49
 70
     1
102
RTVSPost2010Prop50
 90
       50
102
RTVSPost2010PropOp50
 70
     1
102
RTVSPost2010Prop51ColorIndex
 90
      256
102
RTVSPost2010Prop51ColorRGB
 90
-16777216
102
RTVSPost2010PropOp51
 70
     0
102
RTVSPost2010Prop52
140
1.0
102
RTVSPost2010PropOp52
 70
     0
102
RTVSPost2010Prop53
 90
        2
102
RTVSPost2010PropOp53
 70
     1
102
RTVSPost2010Prop54
  1
strokes_ogs.tif
102
RTVSPost2010PropOp54
 70
     1
102
RTVSPost2010Prop55
280
     0
102
RTVSPost2010PropOp55
 70
     1
102
RTVSPost2010Prop56
140
1.0
102
RTVSPost2010PropOp56
 70
     1
102
RTVSPost2010Prop57
140
1.0
102
RTVSPost2010PropOp57
 70
     1
  0
XRECORD
  5
223
102
{ACAD_REACTORS
330
222
102
}
330
222
100
AcDbXrecord
280
     1
102
RTVSPost2010Prop28
280
     0
102
RTVSPost2010PropOp28
 70
     1
102
RTVSPost2010Prop29
280
     1
102
RTVSPost2010PropOp29
 70
     1
102
RTVSPost2010Prop30
280
     1
102
RTVSPost2010PropOp30
 70
     1
102
RTVSPost2010Prop31
280
     0
102
RTVSPost2010PropOp31
 70
     1
102
RTVSPost2010Prop32
280
     0
102
RTVSPost2010PropOp32
 70
     1
102
RTVSPost2010Prop33
280
     0
102
RTVSPost2010PropOp33
 70
     1
102
RTVSPost2010Prop34
280
     0
102
RTVSPost2010PropOp34
 70
     1
102
RTVSPost2010Prop35
280
     0
102
RTVSPost2010PropOp35
 70
     1
102
RTVSPost2010Prop36
280
     0
102
RTVSPost2010PropOp36
 70
     1
102
RTVSPost2010Prop37
 90
       50
102
RTVSPost2010PropOp37
 70
     1
102
RTVSPost2010Prop38
140
0.0
102
RTVSPost2010PropOp38
 70
     1
102
RTVSPost2010Prop39
140
1.0
102
RTVSPost2010PropOp39
 70
     1
102
RTVSPost2010Prop40
 90
        0
102
RTVSPost2010PropOp40
 70
     1
102
RTVSPost2010Prop41ColorIndex
 90
       18
102
RTVSPost2010Prop41ColorRGB
 90
        0
102
RTVSPost2010PropOp41
 70
     1
102
RTVSPost2010Prop42
 90
       50
102
RTVSPost2010PropOp42
 70
     1
102
RTVSPost2010Prop43
 90
        3
102
RTVSPost2010PropOp43
 70
     1
102
RTVSPost2010Prop44ColorIndex
 90
        5
102
RTVSPost2010Prop44ColorRGB
 90
      255
102
RTVSPost2010PropOp44
 70
     1
102
RTVSPost2010Prop45
280
     0
102
RTVSPost2010PropOp45
 70
     1
102
RTVSPost2010Prop46
 90
       50
102
RTVSPost2010PropOp46
 70
     1
102
RTVSPost2010Prop47
 90
       50
102
RTVSPost2010PropOp47
 70
     1
102
RTVSPost2010Prop48
 90
       50
102
RTVSPost2010PropOp48
 70
     1
102
RTVSPost2010Prop49
280
     0
102
RTVSPost2010PropOp49
 70
     1
102
RTVSPost2010Prop50
 90
       50
102
RTVSPost2010PropOp50
 70
     1
102
RTVSPost2010Prop51ColorIndex
 90
      256
102
RTVSPost2010Prop51ColorRGB
 90
-16777216
102
RTVSPost2010PropOp51
 70
     0
102
RTVSPost2010Prop52
140
1.0
102
RTVSPost2010PropOp52
 70
     0
102
RTVSPost2010Prop53
 90
        2
102
RTVSPost2010PropOp53
 70
     1
102
RTVSPost2010Prop54
  1
strokes_ogs.tif
102
RTVSPost2010PropOp54
 70
     1
102
RTVSPost2010Prop55
280
     0
102
RTVSPost2010PropOp55
 70
     1
102
RTVSPost2010Prop56
140
1.0
102
RTVSPost2010PropOp56
 70
     1
102
RTVSPost2010Prop57
140
1.0
102
RTVSPost2010PropOp57
 70
     1
  0
XRECORD
  5
225
102
{ACAD_REACTORS
330
224
102
}
330
224
100
AcDbXrecord
280
     1
102
RTVSPost2010Prop28
280
     0
102
RTVSPost2010PropOp28
 70
     1
102
RTVSPost2010Prop29
280
     1
102
RTVSPost2010PropOp29
 70
     1
102
RTVSPost2010Prop30
280
     1
102
RTVSPost2010PropOp30
 70
     1
102
RTVSPost2010Prop31
280
     0
102
RTVSPost2010PropOp31
 70
     1
102
RTVSPost2010Prop32
280
     0
102
RTVSPost2010PropOp32
 70
     1
102
RTVSPost2010Prop33
280
     0
102
RTVSPost2010PropOp33
 70
     1
102
RTVSPost2010Prop34
280
     0
102
RTVSPost2010PropOp34
 70
     1
102
RTVSPost2010Prop35
280
     0
102
RTVSPost2010PropOp35
 70
     1
102
RTVSPost2010Prop36
280
     0
102
RTVSPost2010PropOp36
 70
     1
102
RTVSPost2010Prop37
 90
       50
102
RTVSPost2010PropOp37
 70
     1
102
RTVSPost2010Prop38
140
0.0
102
RTVSPost2010PropOp38
 70
     1
102
RTVSPost2010Prop39
140
1.0
102
RTVSPost2010PropOp39
 70
     1
102
RTVSPost2010Prop40
 90
        0
102
RTVSPost2010PropOp40
 70
     1
102
RTVSPost2010Prop41ColorIndex
 90
       18
102
RTVSPost2010Prop41ColorRGB
 90
        0
102
RTVSPost2010PropOp41
 70
     1
102
RTVSPost2010Prop42
 90
       50
102
RTVSPost2010PropOp42
 70
     1
102
RTVSPost2010Prop43
 90
        3
102
RTVSPost2010PropOp43
 70
     1
102
RTVSPost2010Prop44ColorIndex
 90
        5
102
RTVSPost2010Prop44ColorRGB
 90
      255
102
RTVSPost2010PropOp44
 70
     1
102
RTVSPost2010Prop45
280
     0
102
RTVSPost2010PropOp45
 70
     1
102
RTVSPost2010Prop46
 90
       50
102
RTVSPost2010PropOp46
 70
     1
102
RTVSPost2010Prop47
 90
       50
102
RTVSPost2010PropOp47
 70
     1
102
RTVSPost2010Prop48
 90
       50
102
RTVSPost2010PropOp48
 70
     1
102
RTVSPost2010Prop49
280
     0
102
RTVSPost2010PropOp49
 70
     1
102
RTVSPost2010Prop50
 90
       50
102
RTVSPost2010PropOp50
 70
     1
102
RTVSPost2010Prop51ColorIndex
 90
      256
102
RTVSPost2010Prop51ColorRGB
 90
-16777216
102
RTVSPost2010PropOp51
 70
     0
102
RTVSPost2010Prop52
140
1.0
102
RTVSPost2010PropOp52
 70
     0
102
RTVSPost2010Prop53
 90
        2
102
RTVSPost2010PropOp53
 70
     1
102
RTVSPost2010Prop54
  1
strokes_ogs.tif
102
RTVSPost2010PropOp54
 70
     1
102
RTVSPost2010Prop55
280
     0
102
RTVSPost2010PropOp55
 70
     1
102
RTVSPost2010Prop56
140
1.0
102
RTVSPost2010PropOp56
 70
     1
102
RTVSPost2010Prop57
140
1.0
102
RTVSPost2010PropOp57
 70
     1
  0
XRECORD
  5
23F
102
{ACAD_REACTORS
330
23E
102
}
330
23E
100
AcDbXrecord
280
     1
102
RTVSPost2010Prop28
280
     0
102
RTVSPost2010PropOp28
 70
     0
102
RTVSPost2010Prop29
280
     1
102
RTVSPost2010PropOp29
 70
     0
102
RTVSPost2010Prop30
280
     1
102
RTVSPost2010PropOp30
 70
     0
102
RTVSPost2010Prop31
280
     0
102
RTVSPost2010PropOp31
 70
     0
102
RTVSPost2010Prop32
280
     0
102
RTVSPost2010PropOp32
 70
     0
102
RTVSPost2010Prop33
280
     0
102
RTVSPost2010PropOp33
 70
     0
102
RTVSPost2010Prop34
280
     0
102
RTVSPost2010PropOp34
 70
     0
102
RTVSPost2010Prop35
280
     0
102
RTVSPost2010PropOp35
 70
     0
102
RTVSPost2010Prop36
280
     0
102
RTVSPost2010PropOp36
 70
     0
102
RTVSPost2010Prop37
 90
       50
102
RTVSPost2010PropOp37
 70
     0
102
RTVSPost2010Prop38
140
0.0
102
RTVSPost2010PropOp38
 70
     0
102
RTVSPost2010Prop39
140
1.0
102
RTVSPost2010PropOp39
 70
     0
102
RTVSPost2010Prop40
 90
        0
102
RTVSPost2010PropOp40
 70
     0
102
RTVSPost2010Prop41ColorIndex
 90
       18
102
RTVSPost2010Prop41ColorRGB
 90
        0
102
RTVSPost2010PropOp41
 70
     0
102
RTVSPost2010Prop42
 90
       50
102
RTVSPost2010PropOp42
 70
     0
102
RTVSPost2010Prop43
 90
        3
102
RTVSPost2010PropOp43
 70
     0
102
RTVSPost2010Prop44ColorIndex
 90
        5
102
RTVSPost2010Prop44ColorRGB
 90
      255
102
RTVSPost2010PropOp44
 70
     0
102
RTVSPost2010Prop45
280
     0
102
RTVSPost2010PropOp45
 70
     0
102
RTVSPost2010Prop46
 90
       50
102
RTVSPost2010PropOp46
 70
     0
102
RTVSPost2010Prop47
 90
       50
102
RTVSPost2010PropOp47
 70
     0
102
RTVSPost2010Prop48
 90
       50
102
RTVSPost2010PropOp48
 70
     0
102
RTVSPost2010Prop49
280
     0
102
RTVSPost2010PropOp49
 70
     0
102
RTVSPost2010Prop50
 90
       50
102
RTVSPost2010PropOp50
 70
     0
102
RTVSPost2010Prop51ColorIndex
 90
      256
102
RTVSPost2010Prop51ColorRGB
 90
-16777216
102
RTVSPost2010PropOp51
 70
     0
102
RTVSPost2010Prop52
140
1.0
102
RTVSPost2010PropOp52
 70
     0
102
RTVSPost2010Prop53
 90
        2
102
RTVSPost2010PropOp53
 70
     0
102
RTVSPost2010Prop54
  1
strokes_ogs.tif
102
RTVSPost2010PropOp54
 70
     0
102
RTVSPost2010Prop55
280
     0
102
RTVSPost2010PropOp55
 70
     0
102
RTVSPost2010Prop56
140
1.0
102
RTVSPost2010PropOp56
 70
     0
102
RTVSPost2010Prop57
140
1.0
102
RTVSPost2010PropOp57
 70
     0
  0
XRECORD
  5
22D
102
{ACAD_REACTORS
330
22C
102
}
330
22C
100
AcDbXrecord
280
     1
102
RTVSPost2010Prop28
280
     0
102
RTVSPost2010PropOp28
 70
     1
102
RTVSPost2010Prop29
280
     1
102
RTVSPost2010PropOp29
 70
     1
102
RTVSPost2010Prop30
280
     1
102
RTVSPost2010PropOp30
 70
     1
102
RTVSPost2010Prop31
280
     0
102
RTVSPost2010PropOp31
 70
     1
102
RTVSPost2010Prop32
280
     0
102
RTVSPost2010PropOp32
 70
     1
102
RTVSPost2010Prop33
280
     0
102
RTVSPost2010PropOp33
 70
     1
102
RTVSPost2010Prop34
280
     0
102
RTVSPost2010PropOp34
 70
     1
102
RTVSPost2010Prop35
280
     0
102
RTVSPost2010PropOp35
 70
     1
102
RTVSPost2010Prop36
280
     0
102
RTVSPost2010PropOp36
 70
     1
102
RTVSPost2010Prop37
 90
       50
102
RTVSPost2010PropOp37
 70
     1
102
RTVSPost2010Prop38
140
0.0
102
RTVSPost2010PropOp38
 70
     1
102
RTVSPost2010Prop39
140
1.0
102
RTVSPost2010PropOp39
 70
     1
102
RTVSPost2010Prop40
 90
        0
102
RTVSPost2010PropOp40
 70
     1
102
RTVSPost2010Prop41ColorIndex
 90
       18
102
RTVSPost2010Prop41ColorRGB
 90
        0
102
RTVSPost2010PropOp41
 70
     1
102
RTVSPost2010Prop42
 90
       50
102
RTVSPost2010PropOp42
 70
     1
102
RTVSPost2010Prop43
 90
        3
102
RTVSPost2010PropOp43
 70
     1
102
RTVSPost2010Prop44ColorIndex
 90
        5
102
RTVSPost2010Prop44ColorRGB
 90
      255
102
RTVSPost2010PropOp44
 70
     1
102
RTVSPost2010Prop45
280
     0
102
RTVSPost2010PropOp45
 70
     1
102
RTVSPost2010Prop46
 90
       50
102
RTVSPost2010PropOp46
 70
     1
102
RTVSPost2010Prop47
 90
       50
102
RTVSPost2010PropOp47
 70
     1
102
RTVSPost2010Prop48
 90
       50
102
RTVSPost2010PropOp48
 70
     1
102
RTVSPost2010Prop49
280
     0
102
RTVSPost2010PropOp49
 70
     1
102
RTVSPost2010Prop50
 90
       50
102
RTVSPost2010PropOp50
 70
     1
102
RTVSPost2010Prop51ColorIndex
 90
      256
102
RTVSPost2010Prop51ColorRGB
 90
-16777216
102
RTVSPost2010PropOp51
 70
     0
102
RTVSPost2010Prop52
140
1.0
102
RTVSPost2010PropOp52
 70
     0
102
RTVSPost2010Prop53
 90
        2
102
RTVSPost2010PropOp53
 70
     1
102
RTVSPost2010Prop54
  1
strokes_ogs.tif
102
RTVSPost2010PropOp54
 70
     1
102
RTVSPost2010Prop55
280
     0
102
RTVSPost2010PropOp55
 70
     1
102
RTVSPost2010Prop56
140
1.0
102
RTVSPost2010PropOp56
 70
     1
102
RTVSPost2010Prop57
140
1.0
102
RTVSPost2010PropOp57
 70
     1
  0
XRECORD
  5
217
102
{ACAD_REACTORS
330
216
102
}
330
216
100
AcDbXrecord
280
     1
102
RTVSPost2010Prop28
280
     0
102
RTVSPost2010PropOp28
 70
     1
102
RTVSPost2010Prop29
280
     1
102
RTVSPost2010PropOp29
 70
     1
102
RTVSPost2010Prop30
280
     1
102
RTVSPost2010PropOp30
 70
     1
102
RTVSPost2010Prop31
280
     0
102
RTVSPost2010PropOp31
 70
     1
102
RTVSPost2010Prop32
280
     0
102
RTVSPost2010PropOp32
 70
     1
102
RTVSPost2010Prop33
280
     0
102
RTVSPost2010PropOp33
 70
     1
102
RTVSPost2010Prop34
280
     0
102
RTVSPost2010PropOp34
 70
     1
102
RTVSPost2010Prop35
280
     0
102
RTVSPost2010PropOp35
 70
     1
102
RTVSPost2010Prop36
280
     0
102
RTVSPost2010PropOp36
 70
     1
102
RTVSPost2010Prop37
 90
       50
102
RTVSPost2010PropOp37
 70
     1
102
RTVSPost2010Prop38
140
0.0
102
RTVSPost2010PropOp38
 70
     1
102
RTVSPost2010Prop39
140
1.0
102
RTVSPost2010PropOp39
 70
     1
102
RTVSPost2010Prop40
 90
        0
102
RTVSPost2010PropOp40
 70
     1
102
RTVSPost2010Prop41ColorIndex
 90
       18
102
RTVSPost2010Prop41ColorRGB
 90
        0
102
RTVSPost2010PropOp41
 70
     1
102
RTVSPost2010Prop42
 90
       50
102
RTVSPost2010PropOp42
 70
     1
102
RTVSPost2010Prop43
 90
        3
102
RTVSPost2010PropOp43
 70
     1
102
RTVSPost2010Prop44ColorIndex
 90
        5
102
RTVSPost2010Prop44ColorRGB
 90
      255
102
RTVSPost2010PropOp44
 70
     1
102
RTVSPost2010Prop45
280
     0
102
RTVSPost2010PropOp45
 70
     1
102
RTVSPost2010Prop46
 90
       50
102
RTVSPost2010PropOp46
 70
     1
102
RTVSPost2010Prop47
 90
       50
102
RTVSPost2010PropOp47
 70
     1
102
RTVSPost2010Prop48
 90
       50
102
RTVSPost2010PropOp48
 70
     1
102
RTVSPost2010Prop49
280
     0
102
RTVSPost2010PropOp49
 70
     1
102
RTVSPost2010Prop50
 90
       50
102
RTVSPost2010PropOp50
 70
     1
102
RTVSPost2010Prop51ColorIndex
 90
      256
102
RTVSPost2010Prop51ColorRGB
 90
-16777216
102
RTVSPost2010PropOp51
 70
     0
102
RTVSPost2010Prop52
140
1.0
102
RTVSPost2010PropOp52
 70
     0
102
RTVSPost2010Prop53
 90
        2
102
RTVSPost2010PropOp53
 70
     1
102
RTVSPost2010Prop54
  1
strokes_ogs.tif
102
RTVSPost2010PropOp54
 70
     1
102
RTVSPost2010Prop55
280
     0
102
RTVSPost2010PropOp55
 70
     1
102
RTVSPost2010Prop56
140
1.0
102
RTVSPost2010PropOp56
 70
     1
102
RTVSPost2010Prop57
140
1.0
102
RTVSPost2010PropOp57
 70
     1
  0
XRECORD
  5
219
102
{ACAD_REACTORS
330
218
102
}
330
218
100
AcDbXrecord
280
     1
102
RTVSPost2010Prop28
280
     0
102
RTVSPost2010PropOp28
 70
     1
102
RTVSPost2010Prop29
280
     1
102
RTVSPost2010PropOp29
 70
     1
102
RTVSPost2010Prop30
280
     1
102
RTVSPost2010PropOp30
 70
     1
102
RTVSPost2010Prop31
280
     0
102
RTVSPost2010PropOp31
 70
     1
102
RTVSPost2010Prop32
280
     0
102
RTVSPost2010PropOp32
 70
     1
102
RTVSPost2010Prop33
280
     0
102
RTVSPost2010PropOp33
 70
     1
102
RTVSPost2010Prop34
280
     0
102
RTVSPost2010PropOp34
 70
     1
102
RTVSPost2010Prop35
280
     0
102
RTVSPost2010PropOp35
 70
     1
102
RTVSPost2010Prop36
280
     0
102
RTVSPost2010PropOp36
 70
     1
102
RTVSPost2010Prop37
 90
       50
102
RTVSPost2010PropOp37
 70
     1
102
RTVSPost2010Prop38
140
0.0
102
RTVSPost2010PropOp38
 70
     1
102
RTVSPost2010Prop39
140
1.0
102
RTVSPost2010PropOp39
 70
     1
102
RTVSPost2010Prop40
 90
        0
102
RTVSPost2010PropOp40
 70
     1
102
RTVSPost2010Prop41ColorIndex
 90
       18
102
RTVSPost2010Prop41ColorRGB
 90
        0
102
RTVSPost2010PropOp41
 70
     1
102
RTVSPost2010Prop42
 90
       50
102
RTVSPost2010PropOp42
 70
     1
102
RTVSPost2010Prop43
 90
        3
102
RTVSPost2010PropOp43
 70
     1
102
RTVSPost2010Prop44ColorIndex
 90
        5
102
RTVSPost2010Prop44ColorRGB
 90
      255
102
RTVSPost2010PropOp44
 70
     1
102
RTVSPost2010Prop45
280
     0
102
RTVSPost2010PropOp45
 70
     1
102
RTVSPost2010Prop46
 90
       50
102
RTVSPost2010PropOp46
 70
     1
102
RTVSPost2010Prop47
 90
       50
102
RTVSPost2010PropOp47
 70
     1
102
RTVSPost2010Prop48
 90
       50
102
RTVSPost2010PropOp48
 70
     1
102
RTVSPost2010Prop49
280
     0
102
RTVSPost2010PropOp49
 70
     1
102
RTVSPost2010Prop50
 90
       50
102
RTVSPost2010PropOp50
 70
     1
102
RTVSPost2010Prop51ColorIndex
 90
      256
102
RTVSPost2010Prop51ColorRGB
 90
-16777216
102
RTVSPost2010PropOp51
 70
     0
102
RTVSPost2010Prop52
140
1.0
102
RTVSPost2010PropOp52
 70
     0
102
RTVSPost2010Prop53
 90
        2
102
RTVSPost2010PropOp53
 70
     1
102
RTVSPost2010Prop54
  1
strokes_ogs.tif
102
RTVSPost2010PropOp54
 70
     1
102
RTVSPost2010Prop55
280
     0
102
RTVSPost2010PropOp55
 70
     1
102
RTVSPost2010Prop56
140
1.0
102
RTVSPost2010PropOp56
 70
     1
102
RTVSPost2010Prop57
140
1.0
102
RTVSPost2010PropOp57
 70
     1
  0
XRECORD
  5
21B
102
{ACAD_REACTORS
330
21A
102
}
330
21A
100
AcDbXrecord
280
     1
102
RTVSPost2010Prop28
280
     0
102
RTVSPost2010PropOp28
 70
     1
102
RTVSPost2010Prop29
280
     1
102
RTVSPost2010PropOp29
 70
     1
102
RTVSPost2010Prop30
280
     1
102
RTVSPost2010PropOp30
 70
     1
102
RTVSPost2010Prop31
280
     0
102
RTVSPost2010PropOp31
 70
     1
102
RTVSPost2010Prop32
280
     0
102
RTVSPost2010PropOp32
 70
     1
102
RTVSPost2010Prop33
280
     0
102
RTVSPost2010PropOp33
 70
     1
102
RTVSPost2010Prop34
280
     0
102
RTVSPost2010PropOp34
 70
     1
102
RTVSPost2010Prop35
280
     0
102
RTVSPost2010PropOp35
 70
     1
102
RTVSPost2010Prop36
280
     0
102
RTVSPost2010PropOp36
 70
     1
102
RTVSPost2010Prop37
 90
       50
102
RTVSPost2010PropOp37
 70
     1
102
RTVSPost2010Prop38
140
0.0
102
RTVSPost2010PropOp38
 70
     1
102
RTVSPost2010Prop39
140
1.0
102
RTVSPost2010PropOp39
 70
     1
102
RTVSPost2010Prop40
 90
        0
102
RTVSPost2010PropOp40
 70
     1
102
RTVSPost2010Prop41ColorIndex
 90
       18
102
RTVSPost2010Prop41ColorRGB
 90
        0
102
RTVSPost2010PropOp41
 70
     1
102
RTVSPost2010Prop42
 90
       50
102
RTVSPost2010PropOp42
 70
     1
102
RTVSPost2010Prop43
 90
        3
102
RTVSPost2010PropOp43
 70
     1
102
RTVSPost2010Prop44ColorIndex
 90
        5
102
RTVSPost2010Prop44ColorRGB
 90
      255
102
RTVSPost2010PropOp44
 70
     1
102
RTVSPost2010Prop45
280
     0
102
RTVSPost2010PropOp45
 70
     1
102
RTVSPost2010Prop46
 90
       50
102
RTVSPost2010PropOp46
 70
     1
102
RTVSPost2010Prop47
 90
       50
102
RTVSPost2010PropOp47
 70
     1
102
RTVSPost2010Prop48
 90
       50
102
RTVSPost2010PropOp48
 70
     1
102
RTVSPost2010Prop49
280
     0
102
RTVSPost2010PropOp49
 70
     1
102
RTVSPost2010Prop50
 90
       50
102
RTVSPost2010PropOp50
 70
     1
102
RTVSPost2010Prop51ColorIndex
 90
      256
102
RTVSPost2010Prop51ColorRGB
 90
-16777216
102
RTVSPost2010PropOp51
 70
     0
102
RTVSPost2010Prop52
140
1.0
102
RTVSPost2010PropOp52
 70
     0
102
RTVSPost2010Prop53
 90
        2
102
RTVSPost2010PropOp53
 70
     1
102
RTVSPost2010Prop54
  1
strokes_ogs.tif
102
RTVSPost2010PropOp54
 70
     1
102
RTVSPost2010Prop55
280
     0
102
RTVSPost2010PropOp55
 70
     1
102
RTVSPost2010Prop56
140
1.0
102
RTVSPost2010PropOp56
 70
     1
102
RTVSPost2010Prop57
140
1.0
102
RTVSPost2010PropOp57
 70
     1
  0
XRECORD
  5
21D
102
{ACAD_REACTORS
330
21C
102
}
330
21C
100
AcDbXrecord
280
     1
102
RTVSPost2010Prop28
280
     0
102
RTVSPost2010PropOp28
 70
     1
102
RTVSPost2010Prop29
280
     1
102
RTVSPost2010PropOp29
 70
     1
102
RTVSPost2010Prop30
280
     1
102
RTVSPost2010PropOp30
 70
     1
102
RTVSPost2010Prop31
280
     0
102
RTVSPost2010PropOp31
 70
     1
102
RTVSPost2010Prop32
280
     0
102
RTVSPost2010PropOp32
 70
     1
102
RTVSPost2010Prop33
280
     0
102
RTVSPost2010PropOp33
 70
     1
102
RTVSPost2010Prop34
280
     0
102
RTVSPost2010PropOp34
 70
     1
102
RTVSPost2010Prop35
280
     0
102
RTVSPost2010PropOp35
 70
     1
102
RTVSPost2010Prop36
280
     0
102
RTVSPost2010PropOp36
 70
     1
102
RTVSPost2010Prop37
 90
       50
102
RTVSPost2010PropOp37
 70
     1
102
RTVSPost2010Prop38
140
0.0
102
RTVSPost2010PropOp38
 70
     1
102
RTVSPost2010Prop39
140
1.0
102
RTVSPost2010PropOp39
 70
     1
102
RTVSPost2010Prop40
 90
        0
102
RTVSPost2010PropOp40
 70
     1
102
RTVSPost2010Prop41ColorIndex
 90
       18
102
RTVSPost2010Prop41ColorRGB
 90
        0
102
RTVSPost2010PropOp41
 70
     1
102
RTVSPost2010Prop42
 90
       50
102
RTVSPost2010PropOp42
 70
     1
102
RTVSPost2010Prop43
 90
        3
102
RTVSPost2010PropOp43
 70
     1
102
RTVSPost2010Prop44ColorIndex
 90
        5
102
RTVSPost2010Prop44ColorRGB
 90
      255
102
RTVSPost2010PropOp44
 70
     1
102
RTVSPost2010Prop45
280
     0
102
RTVSPost2010PropOp45
 70
     1
102
RTVSPost2010Prop46
 90
       50
102
RTVSPost2010PropOp46
 70
     1
102
RTVSPost2010Prop47
 90
       50
102
RTVSPost2010PropOp47
 70
     1
102
RTVSPost2010Prop48
 90
       50
102
RTVSPost2010PropOp48
 70
     1
102
RTVSPost2010Prop49
280
     0
102
RTVSPost2010PropOp49
 70
     1
102
RTVSPost2010Prop50
 90
       50
102
RTVSPost2010PropOp50
 70
     1
102
RTVSPost2010Prop51ColorIndex
 90
      256
102
RTVSPost2010Prop51ColorRGB
 90
-16777216
102
RTVSPost2010PropOp51
 70
     0
102
RTVSPost2010Prop52
140
1.0
102
RTVSPost2010PropOp52
 70
     0
102
RTVSPost2010Prop53
 90
        2
102
RTVSPost2010PropOp53
 70
     1
102
RTVSPost2010Prop54
  1
strokes_ogs.tif
102
RTVSPost2010PropOp54
 70
     1
102
RTVSPost2010Prop55
280
     0
102
RTVSPost2010PropOp55
 70
     1
102
RTVSPost2010Prop56
140
1.0
102
RTVSPost2010PropOp56
 70
     1
102
RTVSPost2010Prop57
140
1.0
102
RTVSPost2010PropOp57
 70
     1
  0
XRECORD
  5
221
102
{ACAD_REACTORS
330
220
102
}
330
220
100
AcDbXrecord
280
     1
102
RTVSPost2010Prop28
280
     0
102
RTVSPost2010PropOp28
 70
     1
102
RTVSPost2010Prop29
280
     1
102
RTVSPost2010PropOp29
 70
     1
102
RTVSPost2010Prop30
280
     1
102
RTVSPost2010PropOp30
 70
     1
102
RTVSPost2010Prop31
280
     0
102
RTVSPost2010PropOp31
 70
     1
102
RTVSPost2010Prop32
280
     0
102
RTVSPost2010PropOp32
 70
     1
102
RTVSPost2010Prop33
280
     0
102
RTVSPost2010PropOp33
 70
     1
102
RTVSPost2010Prop34
280
     0
102
RTVSPost2010PropOp34
 70
     1
102
RTVSPost2010Prop35
280
     0
102
RTVSPost2010PropOp35
 70
     1
102
RTVSPost2010Prop36
280
     0
102
RTVSPost2010PropOp36
 70
     1
102
RTVSPost2010Prop37
 90
       50
102
RTVSPost2010PropOp37
 70
     1
102
RTVSPost2010Prop38
140
0.0
102
RTVSPost2010PropOp38
 70
     1
102
RTVSPost2010Prop39
140
1.0
102
RTVSPost2010PropOp39
 70
     1
102
RTVSPost2010Prop40
 90
        0
102
RTVSPost2010PropOp40
 70
     1
102
RTVSPost2010Prop41ColorIndex
 90
       18
102
RTVSPost2010Prop41ColorRGB
 90
        0
102
RTVSPost2010PropOp41
 70
     1
102
RTVSPost2010Prop42
 90
       50
102
RTVSPost2010PropOp42
 70
     1
102
RTVSPost2010Prop43
 90
        3
102
RTVSPost2010PropOp43
 70
     1
102
RTVSPost2010Prop44ColorIndex
 90
        5
102
RTVSPost2010Prop44ColorRGB
 90
      255
102
RTVSPost2010PropOp44
 70
     1
102
RTVSPost2010Prop45
280
     0
102
RTVSPost2010PropOp45
 70
     1
102
RTVSPost2010Prop46
 90
       50
102
RTVSPost2010PropOp46
 70
     1
102
RTVSPost2010Prop47
 90
       50
102
RTVSPost2010PropOp47
 70
     1
102
RTVSPost2010Prop48
 90
       50
102
RTVSPost2010PropOp48
 70
     1
102
RTVSPost2010Prop49
280
     0
102
RTVSPost2010PropOp49
 70
     1
102
RTVSPost2010Prop50
 90
       50
102
RTVSPost2010PropOp50
 70
     1
102
RTVSPost2010Prop51ColorIndex
 90
      256
102
RTVSPost2010Prop51ColorRGB
 90
-16777216
102
RTVSPost2010PropOp51
 70
     0
102
RTVSPost2010Prop52
140
1.0
102
RTVSPost2010PropOp52
 70
     0
102
RTVSPost2010Prop53
 90
        2
102
RTVSPost2010PropOp53
 70
     1
102
RTVSPost2010Prop54
  1
strokes_ogs.tif
102
RTVSPost2010PropOp54
 70
     1
102
RTVSPost2010Prop55
280
     0
102
RTVSPost2010PropOp55
 70
     1
102
RTVSPost2010Prop56
140
1.0
102
RTVSPost2010PropOp56
 70
     1
102
RTVSPost2010Prop57
140
1.0
102
RTVSPost2010PropOp57
 70
     1
  0
XRECORD
  5
23B
102
{ACAD_REACTORS
330
23A
102
}
330
23A
100
AcDbXrecord
280
     1
102
RTVSPost2010Prop28
280
     0
102
RTVSPost2010PropOp28
 70
     0
102
RTVSPost2010Prop29
280
     1
102
RTVSPost2010PropOp29
 70
     0
102
RTVSPost2010Prop30
280
     1
102
RTVSPost2010PropOp30
 70
     0
102
RTVSPost2010Prop31
280
     0
102
RTVSPost2010PropOp31
 70
     0
102
RTVSPost2010Prop32
280
     0
102
RTVSPost2010PropOp32
 70
     0
102
RTVSPost2010Prop33
280
     0
102
RTVSPost2010PropOp33
 70
     0
102
RTVSPost2010Prop34
280
     0
102
RTVSPost2010PropOp34
 70
     0
102
RTVSPost2010Prop35
280
     0
102
RTVSPost2010PropOp35
 70
     0
102
RTVSPost2010Prop36
280
     0
102
RTVSPost2010PropOp36
 70
     0
102
RTVSPost2010Prop37
 90
       50
102
RTVSPost2010PropOp37
 70
     0
102
RTVSPost2010Prop38
140
0.0
102
RTVSPost2010PropOp38
 70
     0
102
RTVSPost2010Prop39
140
1.0
102
RTVSPost2010PropOp39
 70
     0
102
RTVSPost2010Prop40
 90
        0
102
RTVSPost2010PropOp40
 70
     0
102
RTVSPost2010Prop41ColorIndex
 90
       18
102
RTVSPost2010Prop41ColorRGB
 90
        0
102
RTVSPost2010PropOp41
 70
     0
102
RTVSPost2010Prop42
 90
       50
102
RTVSPost2010PropOp42
 70
     0
102
RTVSPost2010Prop43
 90
        3
102
RTVSPost2010PropOp43
 70
     0
102
RTVSPost2010Prop44ColorIndex
 90
        5
102
RTVSPost2010Prop44ColorRGB
 90
      255
102
RTVSPost2010PropOp44
 70
     0
102
RTVSPost2010Prop45
280
     0
102
RTVSPost2010PropOp45
 70
     0
102
RTVSPost2010Prop46
 90
       50
102
RTVSPost2010PropOp46
 70
     0
102
RTVSPost2010Prop47
 90
       50
102
RTVSPost2010PropOp47
 70
     0
102
RTVSPost2010Prop48
 90
       50
102
RTVSPost2010PropOp48
 70
     0
102
RTVSPost2010Prop49
280
     0
102
RTVSPost2010PropOp49
 70
     0
102
RTVSPost2010Prop50
 90
       50
102
RTVSPost2010PropOp50
 70
     0
102
RTVSPost2010Prop51ColorIndex
 90
      256
102
RTVSPost2010Prop51ColorRGB
 90
-16777216
102
RTVSPost2010PropOp51
 70
     0
102
RTVSPost2010Prop52
140
1.0
102
RTVSPost2010PropOp52
 70
     0
102
RTVSPost2010Prop53
 90
        2
102
RTVSPost2010PropOp53
 70
     0
102
RTVSPost2010Prop54
  1
strokes_ogs.tif
102
RTVSPost2010PropOp54
 70
     0
102
RTVSPost2010Prop55
280
     0
102
RTVSPost2010PropOp55
 70
     0
102
RTVSPost2010Prop56
140
1.0
102
RTVSPost2010PropOp56
 70
     0
102
RTVSPost2010Prop57
140
1.0
102
RTVSPost2010PropOp57
 70
     0
  0
XRECORD
  5
22B
102
{ACAD_REACTORS
330
22A
102
}
330
22A
100
AcDbXrecord
280
     1
102
RTVSPost2010Prop28
280
     0
102
RTVSPost2010PropOp28
 70
     1
102
RTVSPost2010Prop29
280
     1
102
RTVSPost2010PropOp29
 70
     1
102
RTVSPost2010Prop30
280
     1
102
RTVSPost2010PropOp30
 70
     1
102
RTVSPost2010Prop31
280
     0
102
RTVSPost2010PropOp31
 70
     1
102
RTVSPost2010Prop32
280
     0
102
RTVSPost2010PropOp32
 70
     1
102
RTVSPost2010Prop33
280
     0
102
RTVSPost2010PropOp33
 70
     1
102
RTVSPost2010Prop34
280
     0
102
RTVSPost2010PropOp34
 70
     1
102
RTVSPost2010Prop35
280
     0
102
RTVSPost2010PropOp35
 70
     1
102
RTVSPost2010Prop36
280
     0
102
RTVSPost2010PropOp36
 70
     1
102
RTVSPost2010Prop37
 90
       50
102
RTVSPost2010PropOp37
 70
     1
102
RTVSPost2010Prop38
140
0.0
102
RTVSPost2010PropOp38
 70
     1
102
RTVSPost2010Prop39
140
1.0
102
RTVSPost2010PropOp39
 70
     1
102
RTVSPost2010Prop40
 90
        0
102
RTVSPost2010PropOp40
 70
     1
102
RTVSPost2010Prop41ColorIndex
 90
       18
102
RTVSPost2010Prop41ColorRGB
 90
        0
102
RTVSPost2010PropOp41
 70
     1
102
RTVSPost2010Prop42
 90
       50
102
RTVSPost2010PropOp42
 70
     1
102
RTVSPost2010Prop43
 90
        3
102
RTVSPost2010PropOp43
 70
     1
102
RTVSPost2010Prop44ColorIndex
 90
        5
102
RTVSPost2010Prop44ColorRGB
 90
      255
102
RTVSPost2010PropOp44
 70
     1
102
RTVSPost2010Prop45
280
     0
102
RTVSPost2010PropOp45
 70
     1
102
RTVSPost2010Prop46
 90
       50
102
RTVSPost2010PropOp46
 70
     1
102
RTVSPost2010Prop47
 90
       50
102
RTVSPost2010PropOp47
 70
     1
102
RTVSPost2010Prop48
 90
       50
102
RTVSPost2010PropOp48
 70
     1
102
RTVSPost2010Prop49
280
     0
102
RTVSPost2010PropOp49
 70
     1
102
RTVSPost2010Prop50
 90
       50
102
RTVSPost2010PropOp50
 70
     1
102
RTVSPost2010Prop51ColorIndex
 90
      256
102
RTVSPost2010Prop51ColorRGB
 90
-16777216
102
RTVSPost2010PropOp51
 70
     0
102
RTVSPost2010Prop52
140
1.0
102
RTVSPost2010PropOp52
 70
     0
102
RTVSPost2010Prop53
 90
        2
102
RTVSPost2010PropOp53
 70
     1
102
RTVSPost2010Prop54
  1
strokes_ogs.tif
102
RTVSPost2010PropOp54
 70
     1
102
RTVSPost2010Prop55
280
     0
102
RTVSPost2010PropOp55
 70
     1
102
RTVSPost2010Prop56
140
1.0
102
RTVSPost2010PropOp56
 70
     1
102
RTVSPost2010Prop57
140
1.0
102
RTVSPost2010PropOp57
 70
     1
  0
XRECORD
  5
23D
102
{ACAD_REACTORS
330
23C
102
}
330
23C
100
AcDbXrecord
280
     1
102
RTVSPost2010Prop28
280
     0
102
RTVSPost2010PropOp28
 70
     0
102
RTVSPost2010Prop29
280
     1
102
RTVSPost2010PropOp29
 70
     0
102
RTVSPost2010Prop30
280
     1
102
RTVSPost2010PropOp30
 70
     0
102
RTVSPost2010Prop31
280
     0
102
RTVSPost2010PropOp31
 70
     0
102
RTVSPost2010Prop32
280
     0
102
RTVSPost2010PropOp32
 70
     0
102
RTVSPost2010Prop33
280
     0
102
RTVSPost2010PropOp33
 70
     0
102
RTVSPost2010Prop34
280
     0
102
RTVSPost2010PropOp34
 70
     0
102
RTVSPost2010Prop35
280
     0
102
RTVSPost2010PropOp35
 70
     0
102
RTVSPost2010Prop36
280
     0
102
RTVSPost2010PropOp36
 70
     0
102
RTVSPost2010Prop37
 90
       50
102
RTVSPost2010PropOp37
 70
     0
102
RTVSPost2010Prop38
140
0.0
102
RTVSPost2010PropOp38
 70
     0
102
RTVSPost2010Prop39
140
1.0
102
RTVSPost2010PropOp39
 70
     0
102
RTVSPost2010Prop40
 90
        0
102
RTVSPost2010PropOp40
 70
     0
102
RTVSPost2010Prop41ColorIndex
 90
       18
102
RTVSPost2010Prop41ColorRGB
 90
        0
102
RTVSPost2010PropOp41
 70
     0
102
RTVSPost2010Prop42
 90
       50
102
RTVSPost2010PropOp42
 70
     0
102
RTVSPost2010Prop43
 90
        3
102
RTVSPost2010PropOp43
 70
     0
102
RTVSPost2010Prop44ColorIndex
 90
        5
102
RTVSPost2010Prop44ColorRGB
 90
      255
102
RTVSPost2010PropOp44
 70
     0
102
RTVSPost2010Prop45
280
     0
102
RTVSPost2010PropOp45
 70
     0
102
RTVSPost2010Prop46
 90
       50
102
RTVSPost2010PropOp46
 70
     0
102
RTVSPost2010Prop47
 90
       50
102
RTVSPost2010PropOp47
 70
     0
102
RTVSPost2010Prop48
 90
       50
102
RTVSPost2010PropOp48
 70
     0
102
RTVSPost2010Prop49
280
     0
102
RTVSPost2010PropOp49
 70
     0
102
RTVSPost2010Prop50
 90
       50
102
RTVSPost2010PropOp50
 70
     0
102
RTVSPost2010Prop51ColorIndex
 90
      256
102
RTVSPost2010Prop51ColorRGB
 90
-16777216
102
RTVSPost2010PropOp51
 70
     0
102
RTVSPost2010Prop52
140
1.0
102
RTVSPost2010PropOp52
 70
     0
102
RTVSPost2010Prop53
 90
        2
102
RTVSPost2010PropOp53
 70
     0
102
RTVSPost2010Prop54
  1
strokes_ogs.tif
102
RTVSPost2010PropOp54
 70
     0
102
RTVSPost2010Prop55
280
     0
102
RTVSPost2010PropOp55
 70
     0
102
RTVSPost2010Prop56
140
1.0
102
RTVSPost2010PropOp56
 70
     0
102
RTVSPost2010Prop57
140
1.0
102
RTVSPost2010PropOp57
 70
     0
  0
XRECORD
  5
213
102
{ACAD_REACTORS
330
212
102
}
330
212
100
AcDbXrecord
280
     1
102
RTVSPost2010Prop28
280
     0
102
RTVSPost2010PropOp28
 70
     1
102
RTVSPost2010Prop29
280
     1
102
RTVSPost2010PropOp29
 70
     1
102
RTVSPost2010Prop30
280
     1
102
RTVSPost2010PropOp30
 70
     1
102
RTVSPost2010Prop31
280
     0
102
RTVSPost2010PropOp31
 70
     1
102
RTVSPost2010Prop32
280
     0
102
RTVSPost2010PropOp32
 70
     1
102
RTVSPost2010Prop33
280
     0
102
RTVSPost2010PropOp33
 70
     1
102
RTVSPost2010Prop34
280
     0
102
RTVSPost2010PropOp34
 70
     1
102
RTVSPost2010Prop35
280
     0
102
RTVSPost2010PropOp35
 70
     1
102
RTVSPost2010Prop36
280
     0
102
RTVSPost2010PropOp36
 70
     1
102
RTVSPost2010Prop37
 90
       50
102
RTVSPost2010PropOp37
 70
     1
102
RTVSPost2010Prop38
140
0.0
102
RTVSPost2010PropOp38
 70
     1
102
RTVSPost2010Prop39
140
1.0
102
RTVSPost2010PropOp39
 70
     1
102
RTVSPost2010Prop40
 90
        0
102
RTVSPost2010PropOp40
 70
     1
102
RTVSPost2010Prop41ColorIndex
 90
       18
102
RTVSPost2010Prop41ColorRGB
 90
        0
102
RTVSPost2010PropOp41
 70
     1
102
RTVSPost2010Prop42
 90
       50
102
RTVSPost2010PropOp42
 70
     1
102
RTVSPost2010Prop43
 90
        3
102
RTVSPost2010PropOp43
 70
     1
102
RTVSPost2010Prop44ColorIndex
 90
        5
102
RTVSPost2010Prop44ColorRGB
 90
      255
102
RTVSPost2010PropOp44
 70
     1
102
RTVSPost2010Prop45
280
     0
102
RTVSPost2010PropOp45
 70
     1
102
RTVSPost2010Prop46
 90
       50
102
RTVSPost2010PropOp46
 70
     1
102
RTVSPost2010Prop47
 90
       50
102
RTVSPost2010PropOp47
 70
     1
102
RTVSPost2010Prop48
 90
       50
102
RTVSPost2010PropOp48
 70
     1
102
RTVSPost2010Prop49
280
     0
102
RTVSPost2010PropOp49
 70
     1
102
RTVSPost2010Prop50
 90
       50
102
RTVSPost2010PropOp50
 70
     1
102
RTVSPost2010Prop51ColorIndex
 90
      256
102
RTVSPost2010Prop51ColorRGB
 90
-16777216
102
RTVSPost2010PropOp51
 70
     0
102
RTVSPost2010Prop52
140
1.0
102
RTVSPost2010PropOp52
 70
     0
102
RTVSPost2010Prop53
 90
        2
102
RTVSPost2010PropOp53
 70
     1
102
RTVSPost2010Prop54
  1
strokes_ogs.tif
102
RTVSPost2010PropOp54
 70
     1
102
RTVSPost2010Prop55
280
     0
102
RTVSPost2010PropOp55
 70
     1
102
RTVSPost2010Prop56
140
1.0
102
RTVSPost2010PropOp56
 70
     1
102
RTVSPost2010Prop57
140
1.0
102
RTVSPost2010PropOp57
 70
     1
  0
XRECORD
  5
239
102
{ACAD_REACTORS
330
238
102
}
330
238
100
AcDbXrecord
280
     1
102
RTVSPost2010Prop28
280
     0
102
RTVSPost2010PropOp28
 70
     1
102
RTVSPost2010Prop29
280
     1
102
RTVSPost2010PropOp29
 70
     1
102
RTVSPost2010Prop30
280
     1
102
RTVSPost2010PropOp30
 70
     1
102
RTVSPost2010Prop31
280
     0
102
RTVSPost2010PropOp31
 70
     1
102
RTVSPost2010Prop32
280
     0
102
RTVSPost2010PropOp32
 70
     1
102
RTVSPost2010Prop33
280
     0
102
RTVSPost2010PropOp33
 70
     1
102
RTVSPost2010Prop34
280
     0
102
RTVSPost2010PropOp34
 70
     1
102
RTVSPost2010Prop35
280
     0
102
RTVSPost2010PropOp35
 70
     1
102
RTVSPost2010Prop36
280
     0
102
RTVSPost2010PropOp36
 70
     1
102
RTVSPost2010Prop37
 90
       50
102
RTVSPost2010PropOp37
 70
     1
102
RTVSPost2010Prop38
140
0.0
102
RTVSPost2010PropOp38
 70
     1
102
RTVSPost2010Prop39
140
1.0
102
RTVSPost2010PropOp39
 70
     1
102
RTVSPost2010Prop40
 90
        0
102
RTVSPost2010PropOp40
 70
     1
102
RTVSPost2010Prop41ColorIndex
 90
       18
102
RTVSPost2010Prop41ColorRGB
 90
        0
102
RTVSPost2010PropOp41
 70
     1
102
RTVSPost2010Prop42
 90
       50
102
RTVSPost2010PropOp42
 70
     1
102
RTVSPost2010Prop43
 90
        3
102
RTVSPost2010PropOp43
 70
     1
102
RTVSPost2010Prop44ColorIndex
 90
        5
102
RTVSPost2010Prop44ColorRGB
 90
      255
102
RTVSPost2010PropOp44
 70
     1
102
RTVSPost2010Prop45
280
     0
102
RTVSPost2010PropOp45
 70
     1
102
RTVSPost2010Prop46
 90
       50
102
RTVSPost2010PropOp46
 70
     1
102
RTVSPost2010Prop47
 90
       50
102
RTVSPost2010PropOp47
 70
     1
102
RTVSPost2010Prop48
 90
       50
102
RTVSPost2010PropOp48
 70
     1
102
RTVSPost2010Prop49
280
     0
102
RTVSPost2010PropOp49
 70
     1
102
RTVSPost2010Prop50
 90
       50
102
RTVSPost2010PropOp50
 70
     1
102
RTVSPost2010Prop51ColorIndex
 90
      256
102
RTVSPost2010Prop51ColorRGB
 90
-16777216
102
RTVSPost2010PropOp51
 70
     0
102
RTVSPost2010Prop52
140
1.0
102
RTVSPost2010PropOp52
 70
     0
102
RTVSPost2010Prop53
 90
        2
102
RTVSPost2010PropOp53
 70
     1
102
RTVSPost2010Prop54
  1
strokes_ogs.tif
102
RTVSPost2010PropOp54
 70
     1
102
RTVSPost2010Prop55
280
     0
102
RTVSPost2010PropOp55
 70
     1
102
RTVSPost2010Prop56
140
1.0
102
RTVSPost2010PropOp56
 70
     1
102
RTVSPost2010Prop57
140
1.0
102
RTVSPost2010PropOp57
 70
     1
  0
XRECORD
  5
237
102
{ACAD_REACTORS
330
236
102
}
330
236
100
AcDbXrecord
280
     1
102
RTVSPost2010Prop28
280
     0
102
RTVSPost2010PropOp28
 70
     1
102
RTVSPost2010Prop29
280
     1
102
RTVSPost2010PropOp29
 70
     1
102
RTVSPost2010Prop30
280
     1
102
RTVSPost2010PropOp30
 70
     1
102
RTVSPost2010Prop31
280
     0
102
RTVSPost2010PropOp31
 70
     1
102
RTVSPost2010Prop32
280
     0
102
RTVSPost2010PropOp32
 70
     1
102
RTVSPost2010Prop33
280
     0
102
RTVSPost2010PropOp33
 70
     1
102
RTVSPost2010Prop34
280
     0
102
RTVSPost2010PropOp34
 70
     1
102
RTVSPost2010Prop35
280
     0
102
RTVSPost2010PropOp35
 70
     1
102
RTVSPost2010Prop36
280
     0
102
RTVSPost2010PropOp36
 70
     1
102
RTVSPost2010Prop37
 90
       50
102
RTVSPost2010PropOp37
 70
     1
102
RTVSPost2010Prop38
140
0.0
102
RTVSPost2010PropOp38
 70
     1
102
RTVSPost2010Prop39
140
1.0
102
RTVSPost2010PropOp39
 70
     1
102
RTVSPost2010Prop40
 90
        0
102
RTVSPost2010PropOp40
 70
     1
102
RTVSPost2010Prop41ColorIndex
 90
       18
102
RTVSPost2010Prop41ColorRGB
 90
        0
102
RTVSPost2010PropOp41
 70
     1
102
RTVSPost2010Prop42
 90
       50
102
RTVSPost2010PropOp42
 70
     1
102
RTVSPost2010Prop43
 90
        3
102
RTVSPost2010PropOp43
 70
     1
102
RTVSPost2010Prop44ColorIndex
 90
        5
102
RTVSPost2010Prop44ColorRGB
 90
      255
102
RTVSPost2010PropOp44
 70
     1
102
RTVSPost2010Prop45
280
     0
102
RTVSPost2010PropOp45
 70
     1
102
RTVSPost2010Prop46
 90
       50
102
RTVSPost2010PropOp46
 70
     1
102
RTVSPost2010Prop47
 90
       50
102
RTVSPost2010PropOp47
 70
     1
102
RTVSPost2010Prop48
 90
       50
102
RTVSPost2010PropOp48
 70
     1
102
RTVSPost2010Prop49
280
     0
102
RTVSPost2010PropOp49
 70
     1
102
RTVSPost2010Prop50
 90
       50
102
RTVSPost2010PropOp50
 70
     1
102
RTVSPost2010Prop51ColorIndex
 90
      256
102
RTVSPost2010Prop51ColorRGB
 90
-16777216
102
RTVSPost2010PropOp51
 70
     0
102
RTVSPost2010Prop52
140
1.0
102
RTVSPost2010PropOp52
 70
     0
102
RTVSPost2010Prop53
 90
        2
102
RTVSPost2010PropOp53
 70
     1
102
RTVSPost2010Prop54
  1
strokes_ogs.tif
102
RTVSPost2010PropOp54
 70
     1
102
RTVSPost2010Prop55
280
     0
102
RTVSPost2010PropOp55
 70
     1
102
RTVSPost2010Prop56
140
1.0
102
RTVSPost2010PropOp56
 70
     1
102
RTVSPost2010Prop57
140
1.0
102
RTVSPost2010PropOp57
 70
     1
  0
XRECORD
  5
231
102
{ACAD_REACTORS
330
230
102
}
330
230
100
AcDbXrecord
280
     1
102
RTVSPost2010Prop28
280
     0
102
RTVSPost2010PropOp28
 70
     1
102
RTVSPost2010Prop29
280
     1
102
RTVSPost2010PropOp29
 70
     1
102
RTVSPost2010Prop30
280
     1
102
RTVSPost2010PropOp30
 70
     1
102
RTVSPost2010Prop31
280
     0
102
RTVSPost2010PropOp31
 70
     1
102
RTVSPost2010Prop32
280
     0
102
RTVSPost2010PropOp32
 70
     1
102
RTVSPost2010Prop33
280
     0
102
RTVSPost2010PropOp33
 70
     1
102
RTVSPost2010Prop34
280
     0
102
RTVSPost2010PropOp34
 70
     1
102
RTVSPost2010Prop35
280
     0
102
RTVSPost2010PropOp35
 70
     1
102
RTVSPost2010Prop36
280
     0
102
RTVSPost2010PropOp36
 70
     1
102
RTVSPost2010Prop37
 90
       50
102
RTVSPost2010PropOp37
 70
     1
102
RTVSPost2010Prop38
140
0.0
102
RTVSPost2010PropOp38
 70
     1
102
RTVSPost2010Prop39
140
1.0
102
RTVSPost2010PropOp39
 70
     1
102
RTVSPost2010Prop40
 90
        0
102
RTVSPost2010PropOp40
 70
     1
102
RTVSPost2010Prop41ColorIndex
 90
       18
102
RTVSPost2010Prop41ColorRGB
 90
        0
102
RTVSPost2010PropOp41
 70
     1
102
RTVSPost2010Prop42
 90
       50
102
RTVSPost2010PropOp42
 70
     1
102
RTVSPost2010Prop43
 90
        3
102
RTVSPost2010PropOp43
 70
     1
102
RTVSPost2010Prop44ColorIndex
 90
        5
102
RTVSPost2010Prop44ColorRGB
 90
      255
102
RTVSPost2010PropOp44
 70
     1
102
RTVSPost2010Prop45
280
     0
102
RTVSPost2010PropOp45
 70
     1
102
RTVSPost2010Prop46
 90
       50
102
RTVSPost2010PropOp46
 70
     1
102
RTVSPost2010Prop47
 90
       50
102
RTVSPost2010PropOp47
 70
     1
102
RTVSPost2010Prop48
 90
       50
102
RTVSPost2010PropOp48
 70
     1
102
RTVSPost2010Prop49
280
     0
102
RTVSPost2010PropOp49
 70
     1
102
RTVSPost2010Prop50
 90
       50
102
RTVSPost2010PropOp50
 70
     1
102
RTVSPost2010Prop51ColorIndex
 90
      256
102
RTVSPost2010Prop51ColorRGB
 90
-16777216
102
RTVSPost2010PropOp51
 70
     0
102
RTVSPost2010Prop52
140
1.0
102
RTVSPost2010PropOp52
 70
     0
102
RTVSPost2010Prop53
 90
        2
102
RTVSPost2010PropOp53
 70
     1
102
RTVSPost2010Prop54
  1
strokes_ogs.tif
102
RTVSPost2010PropOp54
 70
     1
102
RTVSPost2010Prop55
280
     0
102
RTVSPost2010PropOp55
 70
     1
102
RTVSPost2010Prop56
140
1.0
102
RTVSPost2010PropOp56
 70
     1
102
RTVSPost2010Prop57
140
1.0
102
RTVSPost2010PropOp57
 70
     1
  0
XRECORD
  5
233
102
{ACAD_REACTORS
330
232
102
}
330
232
100
AcDbXrecord
280
     1
102
RTVSPost2010Prop28
280
     0
102
RTVSPost2010PropOp28
 70
     1
102
RTVSPost2010Prop29
280
     1
102
RTVSPost2010PropOp29
 70
     1
102
RTVSPost2010Prop30
280
     1
102
RTVSPost2010PropOp30
 70
     1
102
RTVSPost2010Prop31
280
     0
102
RTVSPost2010PropOp31
 70
     1
102
RTVSPost2010Prop32
280
     0
102
RTVSPost2010PropOp32
 70
     1
102
RTVSPost2010Prop33
280
     0
102
RTVSPost2010PropOp33
 70
     1
102
RTVSPost2010Prop34
280
     0
102
RTVSPost2010PropOp34
 70
     1
102
RTVSPost2010Prop35
280
     0
102
RTVSPost2010PropOp35
 70
     1
102
RTVSPost2010Prop36
280
     0
102
RTVSPost2010PropOp36
 70
     1
102
RTVSPost2010Prop37
 90
       50
102
RTVSPost2010PropOp37
 70
     1
102
RTVSPost2010Prop38
140
0.0
102
RTVSPost2010PropOp38
 70
     1
102
RTVSPost2010Prop39
140
1.0
102
RTVSPost2010PropOp39
 70
     1
102
RTVSPost2010Prop40
 90
        0
102
RTVSPost2010PropOp40
 70
     1
102
RTVSPost2010Prop41ColorIndex
 90
       18
102
RTVSPost2010Prop41ColorRGB
 90
        0
102
RTVSPost2010PropOp41
 70
     1
102
RTVSPost2010Prop42
 90
       50
102
RTVSPost2010PropOp42
 70
     1
102
RTVSPost2010Prop43
 90
        3
102
RTVSPost2010PropOp43
 70
     1
102
RTVSPost2010Prop44ColorIndex
 90
        5
102
RTVSPost2010Prop44ColorRGB
 90
      255
102
RTVSPost2010PropOp44
 70
     1
102
RTVSPost2010Prop45
280
     0
102
RTVSPost2010PropOp45
 70
     1
102
RTVSPost2010Prop46
 90
       50
102
RTVSPost2010PropOp46
 70
     1
102
RTVSPost2010Prop47
 90
       50
102
RTVSPost2010PropOp47
 70
     1
102
RTVSPost2010Prop48
 90
       50
102
RTVSPost2010PropOp48
 70
     1
102
RTVSPost2010Prop49
280
     0
102
RTVSPost2010PropOp49
 70
     1
102
RTVSPost2010Prop50
 90
       50
102
RTVSPost2010PropOp50
 70
     1
102
RTVSPost2010Prop51ColorIndex
 90
      256
102
RTVSPost2010Prop51ColorRGB
 90
-16777216
102
RTVSPost2010PropOp51
 70
     0
102
RTVSPost2010Prop52
140
1.0
102
RTVSPost2010PropOp52
 70
     0
102
RTVSPost2010Prop53
 90
        2
102
RTVSPost2010PropOp53
 70
     1
102
RTVSPost2010Prop54
  1
strokes_ogs.tif
102
RTVSPost2010PropOp54
 70
     1
102
RTVSPost2010Prop55
280
     0
102
RTVSPost2010PropOp55
 70
     1
102
RTVSPost2010Prop56
140
1.0
102
RTVSPost2010PropOp56
 70
     1
102
RTVSPost2010Prop57
140
1.0
102
RTVSPost2010PropOp57
 70
     1
  0
XRECORD
  5
229
102
{ACAD_REACTORS
330
228
102
}
330
228
100
AcDbXrecord
280
     1
102
RTVSPost2010Prop28
280
     0
102
RTVSPost2010PropOp28
 70
     1
102
RTVSPost2010Prop29
280
     1
102
RTVSPost2010PropOp29
 70
     1
102
RTVSPost2010Prop30
280
     1
102
RTVSPost2010PropOp30
 70
     1
102
RTVSPost2010Prop31
280
     0
102
RTVSPost2010PropOp31
 70
     1
102
RTVSPost2010Prop32
280
     0
102
RTVSPost2010PropOp32
 70
     1
102
RTVSPost2010Prop33
280
     0
102
RTVSPost2010PropOp33
 70
     1
102
RTVSPost2010Prop34
280
     0
102
RTVSPost2010PropOp34
 70
     1
102
RTVSPost2010Prop35
280
     0
102
RTVSPost2010PropOp35
 70
     1
102
RTVSPost2010Prop36
280
     0
102
RTVSPost2010PropOp36
 70
     1
102
RTVSPost2010Prop37
 90
       50
102
RTVSPost2010PropOp37
 70
     1
102
RTVSPost2010Prop38
140
0.0
102
RTVSPost2010PropOp38
 70
     1
102
RTVSPost2010Prop39
140
1.0
102
RTVSPost2010PropOp39
 70
     1
102
RTVSPost2010Prop40
 90
        0
102
RTVSPost2010PropOp40
 70
     1
102
RTVSPost2010Prop41ColorIndex
 90
       18
102
RTVSPost2010Prop41ColorRGB
 90
        0
102
RTVSPost2010PropOp41
 70
     1
102
RTVSPost2010Prop42
 90
       50
102
RTVSPost2010PropOp42
 70
     1
102
RTVSPost2010Prop43
 90
        3
102
RTVSPost2010PropOp43
 70
     1
102
RTVSPost2010Prop44ColorIndex
 90
        5
102
RTVSPost2010Prop44ColorRGB
 90
      255
102
RTVSPost2010PropOp44
 70
     1
102
RTVSPost2010Prop45
280
     0
102
RTVSPost2010PropOp45
 70
     1
102
RTVSPost2010Prop46
 90
       50
102
RTVSPost2010PropOp46
 70
     1
102
RTVSPost2010Prop47
 90
       50
102
RTVSPost2010PropOp47
 70
     1
102
RTVSPost2010Prop48
 90
       50
102
RTVSPost2010PropOp48
 70
     1
102
RTVSPost2010Prop49
280
     0
102
RTVSPost2010PropOp49
 70
     1
102
RTVSPost2010Prop50
 90
       50
102
RTVSPost2010PropOp50
 70
     1
102
RTVSPost2010Prop51ColorIndex
 90
      256
102
RTVSPost2010Prop51ColorRGB
 90
-16777216
102
RTVSPost2010PropOp51
 70
     0
102
RTVSPost2010Prop52
140
1.0
102
RTVSPost2010PropOp52
 70
     0
102
RTVSPost2010Prop53
 90
        2
102
RTVSPost2010PropOp53
 70
     1
102
RTVSPost2010Prop54
  1
strokes_ogs.tif
102
RTVSPost2010PropOp54
 70
     1
102
RTVSPost2010Prop55
280
     0
102
RTVSPost2010PropOp55
 70
     1
102
RTVSPost2010Prop56
140
1.0
102
RTVSPost2010PropOp56
 70
     1
102
RTVSPost2010Prop57
140
1.0
102
RTVSPost2010PropOp57
 70
     1
  0
XRECORD
  5
215
102
{ACAD_REACTORS
330
214
102
}
330
214
100
AcDbXrecord
280
     1
102
RTVSPost2010Prop28
280
     0
102
RTVSPost2010PropOp28
 70
     1
102
RTVSPost2010Prop29
280
     1
102
RTVSPost2010PropOp29
 70
     1
102
RTVSPost2010Prop30
280
     1
102
RTVSPost2010PropOp30
 70
     1
102
RTVSPost2010Prop31
280
     0
102
RTVSPost2010PropOp31
 70
     1
102
RTVSPost2010Prop32
280
     0
102
RTVSPost2010PropOp32
 70
     1
102
RTVSPost2010Prop33
280
     0
102
RTVSPost2010PropOp33
 70
     1
102
RTVSPost2010Prop34
280
     0
102
RTVSPost2010PropOp34
 70
     1
102
RTVSPost2010Prop35
280
     0
102
RTVSPost2010PropOp35
 70
     1
102
RTVSPost2010Prop36
280
     0
102
RTVSPost2010PropOp36
 70
     1
102
RTVSPost2010Prop37
 90
       50
102
RTVSPost2010PropOp37
 70
     1
102
RTVSPost2010Prop38
140
0.0
102
RTVSPost2010PropOp38
 70
     1
102
RTVSPost2010Prop39
140
1.0
102
RTVSPost2010PropOp39
 70
     1
102
RTVSPost2010Prop40
 90
        0
102
RTVSPost2010PropOp40
 70
     1
102
RTVSPost2010Prop41ColorIndex
 90
       18
102
RTVSPost2010Prop41ColorRGB
 90
        0
102
RTVSPost2010PropOp41
 70
     1
102
RTVSPost2010Prop42
 90
       50
102
RTVSPost2010PropOp42
 70
     1
102
RTVSPost2010Prop43
 90
        3
102
RTVSPost2010PropOp43
 70
     1
102
RTVSPost2010Prop44ColorIndex
 90
        5
102
RTVSPost2010Prop44ColorRGB
 90
      255
102
RTVSPost2010PropOp44
 70
     1
102
RTVSPost2010Prop45
280
     0
102
RTVSPost2010PropOp45
 70
     1
102
RTVSPost2010Prop46
 90
       50
102
RTVSPost2010PropOp46
 70
     1
102
RTVSPost2010Prop47
 90
       50
102
RTVSPost2010PropOp47
 70
     1
102
RTVSPost2010Prop48
 90
       50
102
RTVSPost2010PropOp48
 70
     1
102
RTVSPost2010Prop49
280
     0
102
RTVSPost2010PropOp49
 70
     1
102
RTVSPost2010Prop50
 90
       50
102
RTVSPost2010PropOp50
 70
     1
102
RTVSPost2010Prop51ColorIndex
 90
      256
102
RTVSPost2010Prop51ColorRGB
 90
-16777216
102
RTVSPost2010PropOp51
 70
     0
102
RTVSPost2010Prop52
140
1.0
102
RTVSPost2010PropOp52
 70
     0
102
RTVSPost2010Prop53
 90
        2
102
RTVSPost2010PropOp53
 70
     1
102
RTVSPost2010Prop54
  1
strokes_ogs.tif
102
RTVSPost2010PropOp54
 70
     1
102
RTVSPost2010Prop55
280
     0
102
RTVSPost2010PropOp55
 70
     1
102
RTVSPost2010Prop56
140
1.0
102
RTVSPost2010PropOp56
 70
     1
102
RTVSPost2010Prop57
140
1.0
102
RTVSPost2010PropOp57
 70
     1
  0
XRECORD
  5
235
102
{ACAD_REACTORS
330
234
102
}
330
234
100
AcDbXrecord
280
     1
102
RTVSPost2010Prop28
280
     0
102
RTVSPost2010PropOp28
 70
     1
102
RTVSPost2010Prop29
280
     1
102
RTVSPost2010PropOp29
 70
     1
102
RTVSPost2010Prop30
280
     1
102
RTVSPost2010PropOp30
 70
     1
102
RTVSPost2010Prop31
280
     0
102
RTVSPost2010PropOp31
 70
     1
102
RTVSPost2010Prop32
280
     0
102
RTVSPost2010PropOp32
 70
     1
102
RTVSPost2010Prop33
280
     0
102
RTVSPost2010PropOp33
 70
     1
102
RTVSPost2010Prop34
280
     0
102
RTVSPost2010PropOp34
 70
     1
102
RTVSPost2010Prop35
280
     0
102
RTVSPost2010PropOp35
 70
     1
102
RTVSPost2010Prop36
280
     0
102
RTVSPost2010PropOp36
 70
     1
102
RTVSPost2010Prop37
 90
       50
102
RTVSPost2010PropOp37
 70
     1
102
RTVSPost2010Prop38
140
0.0
102
RTVSPost2010PropOp38
 70
     1
102
RTVSPost2010Prop39
140
1.0
102
RTVSPost2010PropOp39
 70
     1
102
RTVSPost2010Prop40
 90
        0
102
RTVSPost2010PropOp40
 70
     1
102
RTVSPost2010Prop41ColorIndex
 90
       18
102
RTVSPost2010Prop41ColorRGB
 90
        0
102
RTVSPost2010PropOp41
 70
     1
102
RTVSPost2010Prop42
 90
       50
102
RTVSPost2010PropOp42
 70
     1
102
RTVSPost2010Prop43
 90
        3
102
RTVSPost2010PropOp43
 70
     1
102
RTVSPost2010Prop44ColorIndex
 90
        5
102
RTVSPost2010Prop44ColorRGB
 90
      255
102
RTVSPost2010PropOp44
 70
     1
102
RTVSPost2010Prop45
280
     0
102
RTVSPost2010PropOp45
 70
     1
102
RTVSPost2010Prop46
 90
       50
102
RTVSPost2010PropOp46
 70
     1
102
RTVSPost2010Prop47
 90
       50
102
RTVSPost2010PropOp47
 70
     1
102
RTVSPost2010Prop48
 90
       50
102
RTVSPost2010PropOp48
 70
     1
102
RTVSPost2010Prop49
280
     0
102
RTVSPost2010PropOp49
 70
     1
102
RTVSPost2010Prop50
 90
       50
102
RTVSPost2010PropOp50
 70
     1
102
RTVSPost2010Prop51ColorIndex
 90
      256
102
RTVSPost2010Prop51ColorRGB
 90
-16777216
102
RTVSPost2010PropOp51
 70
     0
102
RTVSPost2010Prop52
140
1.0
102
RTVSPost2010PropOp52
 70
     0
102
RTVSPost2010Prop53
 90
        2
102
RTVSPost2010PropOp53
 70
     1
102
RTVSPost2010Prop54
  1
strokes_ogs.tif
102
RTVSPost2010PropOp54
 70
     1
102
RTVSPost2010Prop55
280
     0
102
RTVSPost2010PropOp55
 70
     1
102
RTVSPost2010Prop56
140
1.0
102
RTVSPost2010PropOp56
 70
     1
102
RTVSPost2010Prop57
140
1.0
102
RTVSPost2010PropOp57
 70
     1
  0
XRECORD
  5
5D
102
{ACAD_REACTORS
330
5C
102
}
330
5C
100
AcDbXrecord
280
     1
1071
  6895636
1071
  9291323
 70
    25
 70
   104
 40
0.0
  0
XRECORD
  5
5E
102
{ACAD_REACTORS
330
5C
102
}
330
5C
100
AcDbXrecord
280
     1
1071
 18597260
1071
 25303744
 70
    25
 70
   104
 10
1.185834988647621
 20
0.7358094721253014
 30
0.0
 10
11.85250165531428
 20
0.7358094721253014
 30
0.0
 10
0.0
 20
0.0
 30
-1.0
  0
ENDSEC
  0
EOF
