  0
SECTION
  2
HEADER
  9
$ACADVER
  1
AC1018
  9
$ACADMAINTVER
 70
   104
  9
$DWGCODEPAGE
  3
ANSI_1252
  9
$INSBASE
 10
54.0
 20
-24.0
 30
0.0
  9
$EXTMIN
 10
53.75
 20
-24.25
 30
0.0
  9
$EXTMAX
 10
70.75
 20
-13.25
 30
0.0
  9
$LIMMIN
 10
0.0
 20
0.0
  9
$LIMMAX
 10
12.0
 20
9.0
  9
$ORTHOMODE
 70
     0
  9
$REGENMODE
 70
     1
  9
$FILLMODE
 70
     1
  9
$QTEXTMODE
 70
     0
  9
$MIRRTEXT
 70
     0
  9
$LTSCALE
 40
1.0
  9
$ATTMODE
 70
     1
  9
$TEXTSIZE
 40
0.125
  9
$TRACEWID
 40
0.05
  9
$TEXTSTYLE
  7
ROMANS
  9
$CLAYER
  8
0
  9
$CELTYPE
  6
ByLayer
  9
$CECOLOR
 62
   256
  9
$CELTSCALE
 40
1.0
  9
$DISPSILH
 70
     0
  9
$DIMSCALE
 40
1.0
  9
$DIMASZ
 40
0.18
  9
$DIMEXO
 40
0.0625
  9
$DIMDLI
 40
0.38
  9
$DIMRND
 40
0.0
  9
$DIMDLE
 40
0.0
  9
$DIMEXE
 40
0.125
  9
$DIMTP
 40
0.0
  9
$DIMTM
 40
0.0
  9
$DIMTXT
 40
0.125
  9
$DIMCEN
 40
0.09
  9
$DIMTSZ
 40
0.0
  9
$DIMTOL
 70
     0
  9
$DIMLIM
 70
     0
  9
$DIMTIH
 70
     1
  9
$DIMTOH
 70
     1
  9
$DIMSE1
 70
     0
  9
$DIMSE2
 70
     0
  9
$DIMTAD
 70
     0
  9
$DIMZIN
 70
     0
  9
$DIMBLK
  1

  9
$DIMASO
 70
     1
  9
$DIMSHO
 70
     1
  9
$DIMPOST
  1

  9
$DIMAPOST
  1

  9
$DIMALT
 70
     0
  9
$DIMALTD
 70
     2
  9
$DIMALTF
 40
25.4
  9
$DIMLFAC
 40
1.0
  9
$DIMTOFL
 70
     0
  9
$DIMTVP
 40
0.0
  9
$DIMTIX
 70
     0
  9
$DIMSOXD
 70
     0
  9
$DIMSAH
 70
     0
  9
$DIMBLK1
  1

  9
$DIMBLK2
  1

  9
$DIMSTYLE
  2
Standard
  9
$DIMCLRD
 70
   256
  9
$DIMCLRE
 70
   256
  9
$DIMCLRT
 70
   256
  9
$DIMTFAC
 40
1.0
  9
$DIMGAP
 40
0.09
  9
$DIMJUST
 70
     0
  9
$DIMSD1
 70
     0
  9
$DIMSD2
 70
     0
  9
$DIMTOLJ
 70
     1
  9
$DIMTZIN
 70
     0
  9
$DIMALTZ
 70
     0
  9
$DIMALTTZ
 70
     0
  9
$DIMUPT
 70
     0
  9
$DIMDEC
 70
     4
  9
$DIMTDEC
 70
     4
  9
$DIMALTU
 70
     2
  9
$DIMALTTD
 70
     2
  9
$DIMTXSTY
  7
Arial
  9
$DIMAUNIT
 70
     0
  9
$DIMADEC
 70
     0
  9
$DIMALTRND
 40
0.0
  9
$DIMAZIN
 70
     0
  9
$DIMDSEP
 70
    46
  9
$DIMATFIT
 70
     3
  9
$DIMFRAC
 70
     0
  9
$DIMLDRBLK
  1

  9
$DIMLUNIT
 70
     2
  9
$DIMLWD
 70
    -1
  9
$DIMLWE
 70
    -1
  9
$DIMTMOVE
 70
     2
  9
$LUNITS
 70
     2
  9
$LUPREC
 70
     3
  9
$SKETCHINC
 40
0.1
  9
$FILLETRAD
 40
0.0
  9
$AUNITS
 70
     0
  9
$AUPREC
 70
     0
  9
$MENU
  1
ACAD
  9
$ELEVATION
 40
0.0
  9
$PELEVATION
 40
0.0
  9
$THICKNESS
 40
0.0
  9
$LIMCHECK
 70
     0
  9
$CHAMFERA
 40
0.0
  9
$CHAMFERB
 40
0.0
  9
$CHAMFERC
 40
0.0
  9
$CHAMFERD
 40
0.0
  9
$SKPOLY
 70
     0
  9
$TDCREATE
 40
2449623.385097569
  9
$TDUCREATE
 40
2449623.676764236
  9
$TDUPDATE
 40
2457084.392587407
  9
$TDUUPDATE
 40
2457084.684254074
  9
$TDINDWG
 40
5.2830181944
  9
$TDUSRTIMER
 40
5.2830181944
  9
$USRTIMER
 70
     1
  9
$ANGBASE
 50
0.0
  9
$ANGDIR
 70
     0
  9
$PDMODE
 70
     3
  9
$PDSIZE
 40
0.05
  9
$PLINEWID
 40
0.0
  9
$SPLFRAME
 70
     0
  9
$SPLINETYPE
 70
     6
  9
$SPLINESEGS
 70
     8
  9
$HANDSEED
  5
21B
  9
$SURFTAB1
 70
     6
  9
$SURFTAB2
 70
     6
  9
$SURFTYPE
 70
     6
  9
$SURFU
 70
     6
  9
$SURFV
 70
     6
  9
$UCSBASE
  2

  9
$UCSNAME
  2

  9
$UCSORG
 10
0.0
 20
0.0
 30
0.0
  9
$UCSXDIR
 10
1.0
 20
0.0
 30
0.0
  9
$UCSYDIR
 10
0.0
 20
1.0
 30
0.0
  9
$UCSORTHOREF
  2

  9
$UCSORTHOVIEW
 70
     0
  9
$UCSORGTOP
 10
0.0
 20
0.0
 30
0.0
  9
$UCSORGBOTTOM
 10
0.0
 20
0.0
 30
0.0
  9
$UCSORGLEFT
 10
0.0
 20
0.0
 30
0.0
  9
$UCSORGRIGHT
 10
0.0
 20
0.0
 30
0.0
  9
$UCSORGFRONT
 10
0.0
 20
0.0
 30
0.0
  9
$UCSORGBACK
 10
0.0
 20
0.0
 30
0.0
  9
$PUCSBASE
  2

  9
$PUCSNAME
  2

  9
$PUCSORG
 10
0.0
 20
0.0
 30
0.0
  9
$PUCSXDIR
 10
1.0
 20
0.0
 30
0.0
  9
$PUCSYDIR
 10
0.0
 20
1.0
 30
0.0
  9
$PUCSORTHOREF
  2

  9
$PUCSORTHOVIEW
 70
     0
  9
$PUCSORGTOP
 10
0.0
 20
0.0
 30
0.0
  9
$PUCSORGBOTTOM
 10
0.0
 20
0.0
 30
0.0
  9
$PUCSORGLEFT
 10
0.0
 20
0.0
 30
0.0
  9
$PUCSORGRIGHT
 10
0.0
 20
0.0
 30
0.0
  9
$PUCSORGFRONT
 10
0.0
 20
0.0
 30
0.0
  9
$PUCSORGBACK
 10
0.0
 20
0.0
 30
0.0
  9
$USERI1
 70
     0
  9
$USERI2
 70
     0
  9
$USERI3
 70
     0
  9
$USERI4
 70
     0
  9
$USERI5
 70
     0
  9
$USERR1
 40
0.0
  9
$USERR2
 40
0.0
  9
$USERR3
 40
0.0
  9
$USERR4
 40
0.0
  9
$USERR5
 40
0.0
  9
$WORLDVIEW
 70
     1
  9
$SHADEDGE
 70
     3
  9
$SHADEDIF
 70
    70
  9
$TILEMODE
 70
     1
  9
$MAXACTVP
 70
    16
  9
$PINSBASE
 10
0.0
 20
0.0
 30
0.0
  9
$PLIMCHECK
 70
     0
  9
$PEXTMIN
 10
-3.673503953208026
 20
-1.0055267942079
 30
0.0
  9
$PEXTMAX
 10
13.32649604679197
 20
9.994473205792099
 30
0.0
  9
$PLIMMIN
 10
-3.673503472381581
 20
-1.005526433529401
  9
$PLIMMAX
 10
13.32649604702664
 20
9.994473326174709
  9
$UNITMODE
 70
     0
  9
$VISRETAIN
 70
     0
  9
$PLINEGEN
 70
     1
  9
$PSLTSCALE
 70
     1
  9
$TREEDEPTH
 70
  3020
  9
$CMLSTYLE
  2
DUCT_PIPE
  9
$CMLJUST
 70
     1
  9
$CMLSCALE
 40
0.100000000000002
  9
$PROXYGRAPHICS
 70
     1
  9
$MEASUREMENT
 70
     0
  9
$CELWEIGHT
370
    -1
  9
$ENDCAPS
280
     0
  9
$JOINSTYLE
280
     0
  9
$LWDISPLAY
290
     0
  9
$INSUNITS
 70
     0
  9
$HYPERLINKBASE
  1

  9
$STYLESHEET
  1

  9
$XEDIT
290
     1
  9
$CEPSNTYPE
380
     0
  9
$PSTYLEMODE
290
     1
  9
$FINGERPRINTGUID
  2
{9BB560D8-52F6-4FB8-A100-08F01D3B88C2}
  9
$VERSIONGUID
  2
{EEFF5499-8192-4062-99EF-6E52B34F80CC}
  9
$EXTNAMES
290
     1
  9
$PSVPSCALE
 40
0.0
  9
$OLESTARTUP
290
     1
  9
$SORTENTS
280
    51
  9
$INDEXCTL
280
     0
  9
$HIDETEXT
280
     1
  9
$XCLIPFRAME
290
     0
  9
$HALOGAP
280
     0
  9
$OBSCOLOR
 70
   257
  9
$OBSLTYPE
280
     0
  9
$INTERSECTIONDISPLAY
280
     0
  9
$INTERSECTIONCOLOR
 70
   257
  9
$DIMASSOC
280
     2
  9
$PROJECTNAME
  1

  0
ENDSEC
  0
SECTION
  2
CLASSES
  0
CLASS
  1
ACDBDICTIONARYWDFLT
  2
AcDbDictionaryWithDefault
  3
ObjectDBX Classes
 90
        0
 91
        1
280
     0
281
     0
  0
CLASS
  1
DICTIONARYVAR
  2
AcDbDictionaryVar
  3
ObjectDBX Classes
 90
        0
 91
       10
280
     0
281
     0
  0
CLASS
  1
PLOTSETTINGS
  2
AcDbPlotSettings
  3
ObjectDBX Classes
 90
        0
 91
        0
280
     0
281
     0
  0
CLASS
  1
MATERIAL
  2
AcDbMaterial
  3
ObjectDBX Classes
 90
     1153
 91
        3
280
     0
281
     0
  0
CLASS
  1
VISUALSTYLE
  2
AcDbVisualStyle
  3
ObjectDBX Classes
 90
     4095
 91
       24
280
     0
281
     0
  0
CLASS
  1
TABLESTYLE
  2
AcDbTableStyle
  3
ObjectDBX Classes
 90
     4095
 91
        1
280
     0
281
     0
  0
CLASS
  1
SCALE
  2
AcDbScale
  3
ObjectDBX Classes
 90
     1153
 91
       33
280
     0
281
     0
  0
CLASS
  1
MLEADERSTYLE
  2
AcDbMLeaderStyle
  3
ACDB_MLEADERSTYLE_CLASS
 90
     4095
 91
        2
280
     0
281
     0
  0
CLASS
  1
EXACXREFPANELOBJECT
  2
ExAcXREFPanelObject
  3
EXAC_ESW
 90
     1025
 91
        0
280
     1
281
     0
  0
CLASS
  1
NPOCOLLECTION
  2
AcDbImpNonPersistentObjectsCollection
  3
ObjectDBX Classes
 90
     1153
 91
        0
280
     0
281
     0
  0
CLASS
  1
LAYER_INDEX
  2
AcDbLayerIndex
  3
ObjectDBX Classes
 90
        0
 91
        0
280
     0
281
     0
  0
CLASS
  1
SPATIAL_INDEX
  2
AcDbSpatialIndex
  3
ObjectDBX Classes
 90
        0
 91
        0
280
     0
281
     0
  0
CLASS
  1
IDBUFFER
  2
AcDbIdBuffer
  3
ObjectDBX Classes
 90
        0
 91
        0
280
     0
281
     0
  0
CLASS
  1
CELLSTYLEMAP
  2
AcDbCellStyleMap
  3
ObjectDBX Classes
 90
     1152
 91
        1
280
     0
281
     0
  0
CLASS
  1
SORTENTSTABLE
  2
AcDbSortentsTable
  3
ObjectDBX Classes
 90
        0
 91
        6
280
     0
281
     0
  0
CLASS
  1
AEC_REFEDIT_STATUS_TRACKER
  2
AecDbRefEditStatusTracker
  3
AecArchBase50|Product Desc: Autodesk Architectural Desktop 2007 |Company: Autodesk,Inc. |WEB Address: www.autodesk.com
 90
      129
 91
        0
280
     1
281
     0
  0
CLASS
  1
ACDBSECTIONVIEWSTYLE
  2
AcDbSectionViewStyle
  3
ObjectDBX Classes
 90
     1025
 91
        1
280
     0
281
     0
  0
CLASS
  1
ACDBDETAILVIEWSTYLE
  2
AcDbDetailViewStyle
  3
ObjectDBX Classes
 90
     1025
 91
        1
280
     0
281
     0
  0
CLASS
  1
ACAD_TABLE
  2
AcDbTable
  3
ObjectDBX Classes
 90
     1025
 91
        0
280
     0
281
     1
  0
CLASS
  1
FIELD
  2
AcDbField
  3
ObjectDBX Classes
 90
     1152
 91
        6
280
     0
281
     0
  0
CLASS
  1
FIELDLIST
  2
AcDbFieldList
  3
ObjectDBX Classes
 90
     1152
 91
        1
280
     0
281
     0
  0
CLASS
  1
DATATABLE
  2
AcDbDataTable
  3
ObjectDBX Classes
 90
        0
 91
        0
280
     0
281
     0
  0
CLASS
  1
ACAD_EVALUATION_GRAPH
  2
AcDbEvalGraph
  3
ObjectDBX Classes
 90
     1153
 91
        1
280
     0
281
     0
  0
CLASS
  1
ACAECUSTOBJ
  2
AcAeEditorObj
  3
AcAeEditorObj
 90
     1024
 91
        0
280
     0
281
     0
  0
CLASS
  1
ACDB_DYNAMICBLOCKPURGEPREVENTER_VERSION
  2
AcDbDynamicBlockPurgePreventer
  3
ObjectDBX Classes
 90
     1153
 91
        1
280
     0
281
     0
  0
CLASS
  1
BLOCKPOINTPARAMETER
  2
AcDbBlockPointParameter
  3
ObjectDBX Classes
 90
     1153
 91
        0
280
     0
281
     0
  0
CLASS
  1
BLOCKMOVEACTION
  2
AcDbBlockMoveAction
  3
ObjectDBX Classes
 90
     1153
 91
        0
280
     0
281
     0
  0
CLASS
  1
BLOCKLINEARPARAMETER
  2
AcDbBlockLinearParameter
  3
ObjectDBX Classes
 90
     1153
 91
        1
280
     0
281
     0
  0
CLASS
  1
BLOCKLINEARGRIP
  2
AcDbBlockLinearGrip
  3
ObjectDBX Classes
 90
     1153
 91
        1
280
     0
281
     0
  0
CLASS
  1
BLOCKGRIPLOCATIONCOMPONENT
  2
AcDbBlockGripExpr
  3
ObjectDBX Classes
 90
     1153
 91
        2
280
     0
281
     0
  0
CLASS
  1
BLOCKSTRETCHACTION
  2
AcDbBlockStretchAction
  3
ObjectDBX Classes
 90
     1153
 91
        1
280
     0
281
     0
  0
CLASS
  1
BLOCKPROPERTIESTABLE
  2
AcDbBlockPropertiesTable
  3
ObjectDBX Classes
 90
     1153
 91
        0
280
     0
281
     0
  0
CLASS
  1
BLOCKPROPERTIESTABLEGRIP
  2
AcDbBlockPropertiesTableGrip
  3
ObjectDBX Classes
 90
     1153
 91
        0
280
     0
281
     0
  0
CLASS
  1
ACDB_DYNAMICBLOCKPROXYNODE
  2
AcDbDynamicBlockProxyNode
  3
ObjectDBX Classes
 90
     1153
 91
        0
280
     0
281
     0
  0
CLASS
  1
ACDB_BLOCKREPRESENTATION_DATA
  2
AcDbBlockRepresentationData
  3
ObjectDBX Classes
 90
     1153
 91
        1
280
     0
281
     0
  0
CLASS
  1
BLOCKPOLARPARAMETER
  2
AcDbBlockPolarParameter
  3
ObjectDBX Classes
 90
     1153
 91
        0
280
     0
281
     0
  0
CLASS
  1
BLOCKPOLARGRIP
  2
AcDbBlockPolarGrip
  3
ObjectDBX Classes
 90
     1153
 91
        0
280
     0
281
     0
  0
CLASS
  1
BLOCKPOLARSTRETCHACTION
  2
AcDbBlockPolarStretchAction
  3
ObjectDBX Classes
 90
     1153
 91
        0
280
     0
281
     0
  0
CLASS
  1
BLOCKVISIBILITYPARAMETER
  2
AcDbBlockVisibilityParameter
  3
ObjectDBX Classes
 90
     1153
 91
        0
280
     0
281
     0
  0
CLASS
  1
BLOCKVISIBILITYGRIP
  2
AcDbBlockVisibilityGrip
  3
ObjectDBX Classes
 90
     1153
 91
        0
280
     0
281
     0
  0
CLASS
  1
BLOCKFLIPPARAMETER
  2
AcDbBlockFlipParameter
  3
ObjectDBX Classes
 90
     1153
 91
        0
280
     0
281
     0
  0
CLASS
  1
BLOCKFLIPGRIP
  2
AcDbBlockFlipGrip
  3
ObjectDBX Classes
 90
     1153
 91
        0
280
     0
281
     0
  0
CLASS
  1
BLOCKFLIPACTION
  2
AcDbBlockFlipAction
  3
ObjectDBX Classes
 90
     1153
 91
        0
280
     0
281
     0
  0
CLASS
  1
POINTPARAMETERENTITY
  2
AcDbBlockPointParameterEntity
  3
ObjectDBX Classes
 90
     1025
 91
        0
280
     0
281
     1
  0
CLASS
  1
ACAEEEMGROBJ
  2
AcAeEEMgrObj
  3
AcAeEEMgrObj
 90
     1024
 91
        0
280
     0
281
     0
  0
CLASS
  1
MOVEACTIONENTITY
  2
AcDbBlockMoveActionEntity
  3
ObjectDBX Classes
 90
     1025
 91
        0
280
     0
281
     1
  0
CLASS
  1
LINEARPARAMETERENTITY
  2
AcDbBlockLinearParameterEntity
  3
ObjectDBX Classes
 90
     1025
 91
        0
280
     0
281
     1
  0
CLASS
  1
LINEARGRIPENTITY
  2
AcDbBlockLinearGripEntity
  3
ObjectDBX Classes
 90
     1025
 91
        0
280
     0
281
     1
  0
CLASS
  1
STRETCHACTIONENTITY
  2
AcDbBlockStretchActionEntity
  3
ObjectDBX Classes
 90
     1025
 91
        0
280
     0
281
     1
  0
CLASS
  1
BLOCKPROPERTIESTABLEENTITY
  2
AcDbBlockPropertiesTableEntity
  3
ObjectDBX Classes
 90
     1025
 91
        0
280
     0
281
     1
  0
CLASS
  1
BLOCKPROPERTIESTABLEGRIPENTITY
  2
AcDbBlockPropertiesTableGripEntity
  3
ObjectDBX Classes
 90
     1025
 91
        0
280
     0
281
     1
  0
CLASS
  1
MULTILEADER
  2
AcDbMLeader
  3
ACDB_MLEADER_CLASS
 90
     1025
 91
       12
280
     0
281
     1
  0
CLASS
  1
ACSH_REVOLVE_CLASS
  2
AcDbShRevolve
  3
ObjectDBX Classes
 90
     1153
 91
        0
280
     0
281
     0
  0
CLASS
  1
ACSH_HISTORY_CLASS
  2
AcDbShHistory
  3
ObjectDBX Classes
 90
     1153
 91
        0
280
     0
281
     0
  0
CLASS
  1
IMAGEDEF
  2
AcDbRasterImageDef
  3
ISM
 90
        0
 91
        0
280
     1
281
     0
  0
CLASS
  1
RASTERVARIABLES
  2
AcDbRasterVariables
  3
ISM
 90
        0
 91
        0
280
     1
281
     0
  0
CLASS
  1
IMAGEDEF_REACTOR
  2
AcDbRasterImageDefReactor
  3
ISM
 90
        1
 91
        0
280
     1
281
     0
  0
CLASS
  1
IMAGE
  2
AcDbRasterImage
  3
ISM
 90
     2175
 91
        0
280
     1
281
     1
  0
CLASS
  1
ACARRAYJIGENTITY
  2
AcArrayJigEntity
  3
ACAD_ARRAY
 90
      129
 91
        0
280
     1
281
     1
  0
CLASS
  1
ACDBASSOCNETWORK
  2
AcDbAssocNetwork
  3
ObjectDBX Classes
 90
     1025
 91
        0
280
     0
281
     0
  0
CLASS
  1
ACDBASSOCACTION
  2
AcDbAssocAction
  3
ObjectDBX Classes
 90
     1025
 91
        0
280
     0
281
     0
  0
CLASS
  1
ACDBASSOCARRAYACTIONBODY
  2
AcDbAssocArrayActionBody
  3
ObjectDBX Classes
 90
     1025
 91
        0
280
     0
281
     0
  0
CLASS
  1
ACDBASSOCVERTEXACTIONPARAM
  2
AcDbAssocVertexActionParam
  3
ObjectDBX Classes
 90
     1025
 91
        0
280
     0
281
     0
  0
CLASS
  1
ACDBASSOCDEPENDENCY
  2
AcDbAssocDependency
  3
ObjectDBX Classes
 90
     1025
 91
        0
280
     0
281
     0
  0
CLASS
  1
ACDBASSOCARRAYRECTANGULARPARAMETERS
  2
AcDbAssocArrayRectangularParameters
  3
ObjectDBX Classes
 90
     1025
 91
        0
280
     0
281
     0
  0
CLASS
  1
SOLID_BACKGROUND
  2
AcDbSolidBackground
  3
SCENEOE
 90
     4095
 91
        0
280
     1
281
     0
  0
CLASS
  1
ACDBASSOCPERSSUBENTMANAGER
  2
AcDbAssocPersSubentManager
  3
ObjectDBX Classes
 90
     1024
 91
        0
280
     0
281
     0
  0
CLASS
  1
ACDBPERSSUBENTMANAGER
  2
AcDbPersSubentManager
  3
AcDbPersSubentManager
 90
     1024
 91
        0
280
     0
281
     0
  0
CLASS
  1
DIMASSOC
  2
AcDbDimAssoc
  3
"AcDbDimAssoc|Product Desc:     AcDim ARX App For Dimension|Company:          Autodesk, Inc.|WEB Address:      www.autodesk.com"
 90
        0
 91
        1
280
     0
281
     0
  0
ENDSEC
  0
SECTION
  2
TABLES
  0
TABLE
  2
VPORT
  5
30
102
{ACAD_XDICTIONARY
360
35
102
}
330
0
100
AcDbSymbolTable
 70
     1
  0
VPORT
  5
31
330
30
100
AcDbSymbolTableRecord
100
AcDbViewportTableRecord
  2
*Active
 70
     0
 10
0.0
 20
0.0
 11
1.0
 21
1.0
 12
62.25000000000001
 22
-18.75
 13
0.0
 23
0.0
 14
0.14
 24
0.14
 15
0.14
 25
0.14
 16
0.0
 26
0.0
 36
1.0
 17
0.0
 27
0.0
 37
0.0
 40
11.07603686635944
 41
2.17993079584775
 42
50.0
 43
0.0
 44
0.0
 50
0.0
 51
0.0
 71
     0
 72
  1000
 73
     1
 74
     1
 75
     0
 76
     0
 77
     0
 78
     2
281
     0
 65
     1
110
0.0
120
0.0
130
0.0
111
1.0
121
0.0
131
0.0
112
0.0
122
1.0
132
0.0
 79
     0
146
0.0
1001
ACAD_NAV_VCDISPLAY
1070
     3
  0
ENDTAB
  0
TABLE
  2
LTYPE
  5
2B
330
0
100
AcDbSymbolTable
 70
     1
  0
LTYPE
  5
2C
330
2B
100
AcDbSymbolTableRecord
100
AcDbLinetypeTableRecord
  2
ByBlock
 70
     0
  3

 72
    65
 73
     0
 40
0.0
  0
LTYPE
  5
2D
330
2B
100
AcDbSymbolTableRecord
100
AcDbLinetypeTableRecord
  2
ByLayer
 70
     0
  3

 72
    65
 73
     0
 40
0.0
  0
LTYPE
  5
19
330
2B
100
AcDbSymbolTableRecord
100
AcDbLinetypeTableRecord
  2
CONTINUOUS
 70
     0
  3
Solid line
 72
    65
 73
     0
 40
0.0
  0
ENDTAB
  0
TABLE
  2
LAYER
  5
24
102
{ACAD_XDICTIONARY
360
25
102
}
330
0
100
AcDbSymbolTable
 70
     6
  0
LAYER
  5
7
330
24
100
AcDbSymbolTableRecord
100
AcDbLayerTableRecord
  2
0
 70
     0
 62
     7
  6
CONTINUOUS
370
    -3
390
8
  0
LAYER
  5
7C
330
24
100
AcDbSymbolTableRecord
100
AcDbLayerTableRecord
  2
LP_Detail
 70
     0
 62
   142
  6
CONTINUOUS
370
    -3
390
8
  0
LAYER
  5
A4
330
24
100
AcDbSymbolTableRecord
100
AcDbLayerTableRecord
  2
LP_TitleBlock
 70
     0
 62
    30
  6
CONTINUOUS
370
    -3
390
8
  0
LAYER
  5
FF
330
24
100
AcDbSymbolTableRecord
100
AcDbLayerTableRecord
  2
LP_Text
 70
     0
 62
     7
  6
CONTINUOUS
370
    -3
390
8
  0
LAYER
  5
113
330
24
100
AcDbSymbolTableRecord
100
AcDbLayerTableRecord
  2
LP_Mleader
 70
     0
 62
     1
  6
CONTINUOUS
370
    -3
390
8
  0
LAYER
  5
B1
330
24
100
AcDbSymbolTableRecord
100
AcDbLayerTableRecord
  2
defpoints
 70
     0
 62
     7
  6
CONTINUOUS
290
     0
370
    -3
390
8
1001
AcAecLayerStandard
1000

1000

1001
AcCmTransparency
1071
        0
  0
ENDTAB
  0
TABLE
  2
STYLE
  5
28
330
0
100
AcDbSymbolTable
 70
     4
  0
STYLE
  5
29
330
28
100
AcDbSymbolTableRecord
100
AcDbTextStyleTableRecord
  2
STANDARD
 70
     0
 40
0.0
 41
1.0
 50
0.0
 71
     0
 42
0.2
  3
txt
  4

  0
STYLE
  5
53
330
28
100
AcDbSymbolTableRecord
100
AcDbTextStyleTableRecord
  2
ROMANS
 70
     0
 40
0.0
 41
1.0
 50
0.0
 71
     0
 42
0.125
  3
C:\program files\autodesk\autocad 2014\fonts\Romans.shx
  4

  0
STYLE
  5
52
330
28
100
AcDbSymbolTableRecord
100
AcDbTextStyleTableRecord
  2
Arial
 70
     0
 40
0.0
 41
1.0
 50
0.0
 71
     0
 42
0.125
  3
arial.ttf
  4

1001
ACAD
1000
Arial CYR
1071
    52258
  0
STYLE
  5
B5
330
28
100
AcDbSymbolTableRecord
100
AcDbTextStyleTableRecord
  2
ArialNarrow
 70
     0
 40
0.0
 41
1.0
 50
0.0
 71
     0
 42
0.125
  3
ARIALN.TTF
  4

1001
ACAD
1000
Arial Narrow
1071
       34
  0
ENDTAB
  0
TABLE
  2
VIEW
  5
2E
330
0
100
AcDbSymbolTable
 70
     0
  0
ENDTAB
  0
TABLE
  2
UCS
  5
2F
330
0
100
AcDbSymbolTable
 70
     0
  0
ENDTAB
  0
TABLE
  2
APPID
  5
36
330
0
100
AcDbSymbolTable
 70
    19
  0
APPID
  5
37
330
36
100
AcDbSymbolTableRecord
100
AcDbRegAppTableRecord
  2
ACAD
 70
     0
  0
APPID
  5
11D
330
36
100
AcDbSymbolTableRecord
100
AcDbRegAppTableRecord
  2
ACAD_MLEADERVER
 70
     0
  0
APPID
  5
1E
330
36
100
AcDbSymbolTableRecord
100
AcDbRegAppTableRecord
  2
ACAD_PSEXT
 70
     0
  0
APPID
  5
B
330
36
100
AcDbSymbolTableRecord
100
AcDbRegAppTableRecord
  2
BBSI_PltSel
 70
     0
  0
APPID
  5
E
330
36
100
AcDbSymbolTableRecord
100
AcDbRegAppTableRecord
  2
BBSI_Plots
 70
     0
  0
APPID
  5
C
330
36
100
AcDbSymbolTableRecord
100
AcDbRegAppTableRecord
  2
BBSI_Bookmarks
 70
     0
  0
APPID
  5
D
330
36
100
AcDbSymbolTableRecord
100
AcDbRegAppTableRecord
  2
BBSI_BookmarksEx
 70
     0
  0
APPID
  5
B2
330
36
100
AcDbSymbolTableRecord
100
AcDbRegAppTableRecord
  2
AcAecLayerStandard
 70
     0
  0
APPID
  5
34
330
36
100
AcDbSymbolTableRecord
100
AcDbRegAppTableRecord
  2
ACAD_NAV_VCDISPLAY
 70
     0
  0
APPID
  5
C7
330
36
100
AcDbSymbolTableRecord
100
AcDbRegAppTableRecord
  2
ACAUTHENVIRON
 70
     0
  0
APPID
  5
D8
330
36
100
AcDbSymbolTableRecord
100
AcDbRegAppTableRecord
  2
AcDbDynamicBlockTrueName
 70
     0
  0
APPID
  5
A1
330
36
100
AcDbSymbolTableRecord
100
AcDbRegAppTableRecord
  2
AcDbDynamicBlockGUID
 70
     0
  0
APPID
  5
B3
330
36
100
AcDbSymbolTableRecord
100
AcDbRegAppTableRecord
  2
AcCmTransparency
 70
     0
  0
APPID
  5
D0
330
36
100
AcDbSymbolTableRecord
100
AcDbRegAppTableRecord
  2
AcDbBlockRepETag
 70
     0
  0
APPID
  5
E9
330
36
100
AcDbSymbolTableRecord
100
AcDbRegAppTableRecord
  2
AcDbBlockRepBTag
 70
     0
  0
APPID
  5
1D
330
36
100
AcDbSymbolTableRecord
100
AcDbRegAppTableRecord
  2
PLOTTRANSPARENCY
 70
     0
  0
APPID
  5
A2
330
36
100
AcDbSymbolTableRecord
100
AcDbRegAppTableRecord
  2
RJP
 70
     0
  0
APPID
  5
BE
330
36
100
AcDbSymbolTableRecord
100
AcDbRegAppTableRecord
  2
PE_URL
 70
     0
  0
APPID
  5
1C5
330
36
100
AcDbSymbolTableRecord
100
AcDbRegAppTableRecord
  2
AcDbAttr
 70
     0
  0
ENDTAB
  0
TABLE
  2
DIMSTYLE
  5
38
330
0
100
AcDbSymbolTable
 70
     1
100
AcDbDimStyleTable
 71
     1
340
39
  0
DIMSTYLE
105
39
330
38
100
AcDbSymbolTableRecord
100
AcDbDimStyleTableRecord
  2
Standard
 70
     0
340
29
  0
ENDTAB
  0
TABLE
  2
BLOCK_RECORD
  5
1
330
0
100
AcDbSymbolTable
 70
     8
  0
BLOCK_RECORD
  5
2
102
{ACAD_XDICTIONARY
360
3
102
}
330
1
100
AcDbSymbolTableRecord
100
AcDbBlockTableRecord
  2
*Model_Space
340
1B
  0
BLOCK_RECORD
  5
1F
330
1
100
AcDbSymbolTableRecord
100
AcDbBlockTableRecord
  2
*Paper_Space
340
22
  0
BLOCK_RECORD
  5
A5
102
{ACAD_XDICTIONARY
360
A6
102
}
330
1
100
AcDbSymbolTableRecord
100
AcDbBlockTableRecord
  2
titleblock
340
0
102
{BLKREFS
331
A3
102
}
1001
AcDbDynamicBlockGUID
1000
{CA4B47BB-FDE6-4F91-A270-83FDCBB4BFA2}
  0
BLOCK_RECORD
  5
C3
102
{ACAD_XDICTIONARY
360
C4
102
}
330
1
100
AcDbSymbolTableRecord
100
AcDbBlockTableRecord
  2
*U1
340
0
1001
AcDbBlockRepETag
1070
     1
1071
       13
1001
AcDbDynamicBlockTrueName
1000
dtitle
1001
AcDbDynamicBlockGUID
1000
{0DE04ADB-EB2F-4A9C-9088-68A5B7275855}
  0
BLOCK_RECORD
  5
F6
102
{ACAD_XDICTIONARY
360
1CD
102
}
330
1
100
AcDbSymbolTableRecord
100
AcDbBlockTableRecord
  2
i_cross
340
0
310
2800000020000000200000000100080000000000000400000000000000000000000000000000000000000000000080000080000000808000800000008000800080800000C0C0C000C0DCC000F0CAA6000020400000206000002080000020A0000020C0000020E00000400000004020000040400000406000004080000040A0
310
000040C0000040E00000600000006020000060400000606000006080000060A0000060C0000060E00000800000008020000080400000806000008080000080A0000080C0000080E00000A0000000A0200000A0400000A0600000A0800000A0A00000A0C00000A0E00000C0000000C0200000C0400000C0600000C0800000C0
310
A00000C0C00000C0E00000E0000000E0200000E0400000E0600000E0800000E0A00000E0C00000E0E00040000000400020004000400040006000400080004000A0004000C0004000E00040200000402020004020400040206000402080004020A0004020C0004020E000404000004040200040404000404060004040800040
310
40A0004040C0004040E00040600000406020004060400040606000406080004060A0004060C0004060E00040800000408020004080400040806000408080004080A0004080C0004080E00040A0000040A0200040A0400040A0600040A0800040A0A00040A0C00040A0E00040C0000040C0200040C0400040C0600040C08000
310
40C0A00040C0C00040C0E00040E0000040E0200040E0400040E0600040E0800040E0A00040E0C00040E0E00080000000800020008000400080006000800080008000A0008000C0008000E00080200000802020008020400080206000802080008020A0008020C0008020E00080400000804020008040400080406000804080
310
008040A0008040C0008040E00080600000806020008060400080606000806080008060A0008060C0008060E00080800000808020008080400080806000808080008080A0008080C0008080E00080A0000080A0200080A0400080A0600080A0800080A0A00080A0C00080A0E00080C0000080C0200080C0400080C0600080C0
310
800080C0A00080C0C00080C0E00080E0000080E0200080E0400080E0600080E0800080E0A00080E0C00080E0E000C0000000C0002000C0004000C0006000C0008000C000A000C000C000C000E000C0200000C0202000C0204000C0206000C0208000C020A000C020C000C020E000C0400000C0402000C0404000C0406000C0
310
408000C040A000C040C000C040E000C0600000C0602000C0604000C0606000C0608000C060A000C060C000C060E000C0800000C0802000C0804000C0806000C0808000C080A000C080C000C080E000C0A00000C0A02000C0A04000C0A06000C0A08000C0A0A000C0A0C000C0A0E000C0C00000C0C02000C0C04000C0C06000
310
C0C08000C0C0A000F0FBFF00A4A0A000808080000000FF0000FF000000FFFF00FF000000FF00FF00FFFF0000FFFFFF000000000000000000000000000000000000000000000000000000000000000000000000000000FFFFFFFFFFFFFFFFFFFFFFFFFFFFFFFFFFFFFFFF000000000000000000000000FF0000000000000000
310
00000000000000000000FF000000000000000000000000FF000000000000000000000000000000000000FF000000000000000000000000FF000000000000000000000000000000000000FF000000000000000000000000FF000000000000000000000000000000000000FF00000000000000FFFFFFFFFFFFFFFFFFFFFFFFFF
310
FFFFFFFFFFFFFFFFFFFFFFFFFFFFFFFFFF0000FF00000000FF000000000000000000000000000000000000FF00000000FF0000FF00000000FF000000000000000000000000000000000000FF00000000FF0000FF00000000FF000000000000000000000000000000000000FF00000000FF0000FF00000000FF000000000000
310
000000000000000000000000FF00000000FF0000FF00000000FF000000000000000000000000000000000000FF00000000FF0000FF00000000FF000000000000000000000000000000000000FF00000000FF0000FF00000000FF000000000000000000000000000000000000FF00000000FF0000FF00000000FF0000000000
310
00000000000000000000000000FF00000000FF0000FF00000000FF000000000000000000000000000000000000FF00000000FF0000FF00000000FF000000000000000000000000000000000000FF00000000FF0000FF00000000FF000000000000000000000000000000000000FF00000000FF0000FF00000000FF00000000
310
0000000000000000000000000000FF00000000FF0000FF00000000FF000000000000000000000000000000000000FF00000000FF0000FF00000000FF000000000000000000000000000000000000FF00000000FF0000FF00000000FF000000000000000000000000000000000000FF00000000FF0000FF00000000FF000000
310
000000000000000000000000000000FF00000000FF0000FF00000000FF000000000000000000000000000000000000FF00000000FF0000FF00000000FF000000000000000000000000000000000000FF00000000FF0000FFFFFFFFFFFFFFFFFFFFFFFFFFFFFFFFFFFFFFFFFFFFFFFFFFFFFFFFFFFF00000000000000FF0000
310
00000000000000000000000000000000FF000000000000000000000000FF000000000000000000000000000000000000FF000000000000000000000000FF000000000000000000000000000000000000FF000000000000000000000000FF000000000000000000000000000000000000FF000000000000000000000000FFFF
310
FFFFFFFFFFFFFFFFFFFFFFFFFFFFFFFFFFFF0000000000000000000000000000000000000000000000000000000000000000000000000000
102
{BLKREFS
331
F5
331
FC
331
140
102
}
  0
BLOCK_RECORD
  5
F0
102
{ACAD_XDICTIONARY
360
1CA
102
}
330
1
100
AcDbSymbolTableRecord
100
AcDbBlockTableRecord
  2
i_tee
340
0
310
2800000020000000200000000100080000000000000400000000000000000000000000000000000000000000000080000080000000808000800000008000800080800000C0C0C000C0DCC000F0CAA6000020400000206000002080000020A0000020C0000020E00000400000004020000040400000406000004080000040A0
310
000040C0000040E00000600000006020000060400000606000006080000060A0000060C0000060E00000800000008020000080400000806000008080000080A0000080C0000080E00000A0000000A0200000A0400000A0600000A0800000A0A00000A0C00000A0E00000C0000000C0200000C0400000C0600000C0800000C0
310
A00000C0C00000C0E00000E0000000E0200000E0400000E0600000E0800000E0A00000E0C00000E0E00040000000400020004000400040006000400080004000A0004000C0004000E00040200000402020004020400040206000402080004020A0004020C0004020E000404000004040200040404000404060004040800040
310
40A0004040C0004040E00040600000406020004060400040606000406080004060A0004060C0004060E00040800000408020004080400040806000408080004080A0004080C0004080E00040A0000040A0200040A0400040A0600040A0800040A0A00040A0C00040A0E00040C0000040C0200040C0400040C0600040C08000
310
40C0A00040C0C00040C0E00040E0000040E0200040E0400040E0600040E0800040E0A00040E0C00040E0E00080000000800020008000400080006000800080008000A0008000C0008000E00080200000802020008020400080206000802080008020A0008020C0008020E00080400000804020008040400080406000804080
310
008040A0008040C0008040E00080600000806020008060400080606000806080008060A0008060C0008060E00080800000808020008080400080806000808080008080A0008080C0008080E00080A0000080A0200080A0400080A0600080A0800080A0A00080A0C00080A0E00080C0000080C0200080C0400080C0600080C0
310
800080C0A00080C0C00080C0E00080E0000080E0200080E0400080E0600080E0800080E0A00080E0C00080E0E000C0000000C0002000C0004000C0006000C0008000C000A000C000C000C000E000C0200000C0202000C0204000C0206000C0208000C020A000C020C000C020E000C0400000C0402000C0404000C0406000C0
310
408000C040A000C040C000C040E000C0600000C0602000C0604000C0606000C0608000C060A000C060C000C060E000C0800000C0802000C0804000C0806000C0808000C080A000C080C000C080E000C0A00000C0A02000C0A04000C0A06000C0A08000C0A0A000C0A0C000C0A0E000C0C00000C0C02000C0C04000C0C06000
310
C0C08000C0C0A000F0FBFF00A4A0A000808080000000FF0000FF000000FFFF00FF000000FF00FF00FFFF0000FFFFFF0000000000000000000000000000000000000000000000000000000000000000000000000000000000000000000000000000000000000000000000000000000000000000000000000000000000000000
310
0000000000000000000000000000000000000000000000000000000000000000000000000000000000000000000000000000FFFFFFFFFFFFFFFFFFFFFFFFFFFFFFFFFFFFFFFFFFFFFFFFFFFFFFFFFFFF0000FF00000000FF000000000000000000000000000000000000FF00000000FF0000FF00000000FF00000000000000
310
0000000000000000000000FF00000000FF0000FF00000000FF000000000000000000000000000000000000FF00000000FF0000FF00000000FF000000000000000000000000000000000000FF00000000FF0000FF00000000FF000000000000000000000000000000000000FF00000000FF0000FF00000000FF000000000000
310
000000000000000000000000FF00000000FF0000FF00000000FF000000000000000000000000000000000000FF00000000FF0000FF00000000FF000000000000000000000000000000000000FF00000000FF0000FF00000000FF000000000000000000000000000000000000FF00000000FF0000FF00000000FF0000000000
310
00000000000000000000000000FF00000000FF0000FF00000000FF000000000000000000000000000000000000FF00000000FF0000FF00000000FF000000000000000000000000000000000000FF00000000FF0000FF00000000FF000000000000000000000000000000000000FF00000000FF0000FF00000000FF00000000
310
0000000000000000000000000000FF00000000FF0000FF00000000FF000000000000000000000000000000000000FF00000000FF0000FF00000000FF000000000000000000000000000000000000FF00000000FF0000FF00000000FF000000000000000000000000000000000000FF00000000FF0000FF00000000FF000000
310
000000000000000000000000000000FF00000000FF0000FFFFFFFFFFFFFFFFFFFFFFFFFFFFFFFFFFFFFFFFFFFFFFFFFFFFFFFFFFFF00000000000000FF000000000000000000000000000000000000FF000000000000000000000000FF000000000000000000000000000000000000FF000000000000000000000000FF0000
310
00000000000000000000000000000000FF000000000000000000000000FFFFFFFFFFFFFFFFFFFFFFFFFFFFFFFFFFFFFFFF000000000000000000000000000000000000000000000000000000000000000000000000000000000000000000000000000000000000000000000000000000000000000000000000000000000000
310
0000000000000000000000000000000000000000000000000000000000000000000000000000000000000000000000000000000000000000
102
{BLKREFS
331
EF
331
FB
331
13F
102
}
  0
BLOCK_RECORD
  5
115
102
{ACAD_XDICTIONARY
360
116
102
}
330
1
100
AcDbSymbolTableRecord
100
AcDbBlockTableRecord
  2
_CustomLeaderRJP
340
0
310
2800000020000000200000000100080000000000000400000000000000000000000000000000000000000000000080000080000000808000800000008000800080800000C0C0C000C0DCC000F0CAA6000020400000206000002080000020A0000020C0000020E00000400000004020000040400000406000004080000040A0
310
000040C0000040E00000600000006020000060400000606000006080000060A0000060C0000060E00000800000008020000080400000806000008080000080A0000080C0000080E00000A0000000A0200000A0400000A0600000A0800000A0A00000A0C00000A0E00000C0000000C0200000C0400000C0600000C0800000C0
310
A00000C0C00000C0E00000E0000000E0200000E0400000E0600000E0800000E0A00000E0C00000E0E00040000000400020004000400040006000400080004000A0004000C0004000E00040200000402020004020400040206000402080004020A0004020C0004020E000404000004040200040404000404060004040800040
310
40A0004040C0004040E00040600000406020004060400040606000406080004060A0004060C0004060E00040800000408020004080400040806000408080004080A0004080C0004080E00040A0000040A0200040A0400040A0600040A0800040A0A00040A0C00040A0E00040C0000040C0200040C0400040C0600040C08000
310
40C0A00040C0C00040C0E00040E0000040E0200040E0400040E0600040E0800040E0A00040E0C00040E0E00080000000800020008000400080006000800080008000A0008000C0008000E00080200000802020008020400080206000802080008020A0008020C0008020E00080400000804020008040400080406000804080
310
008040A0008040C0008040E00080600000806020008060400080606000806080008060A0008060C0008060E00080800000808020008080400080806000808080008080A0008080C0008080E00080A0000080A0200080A0400080A0600080A0800080A0A00080A0C00080A0E00080C0000080C0200080C0400080C0600080C0
310
800080C0A00080C0C00080C0E00080E0000080E0200080E0400080E0600080E0800080E0A00080E0C00080E0E000C0000000C0002000C0004000C0006000C0008000C000A000C000C000C000E000C0200000C0202000C0204000C0206000C0208000C020A000C020C000C020E000C0400000C0402000C0404000C0406000C0
310
408000C040A000C040C000C040E000C0600000C0602000C0604000C0606000C0608000C060A000C060C000C060E000C0800000C0802000C0804000C0806000C0808000C080A000C080C000C080E000C0A00000C0A02000C0A04000C0A06000C0A08000C0A0A000C0A0C000C0A0E000C0C00000C0C02000C0C04000C0C06000
310
C0C08000C0C0A000F0FBFF00A4A0A000808080000000FF0000FF000000FFFF00FF000000FF00FF00FFFF0000FFFFFF0000000000000000000000000000000000000000000000000000000000000000000000000000000000000000000000000000000000000000000000000000000000000000000000000000000000000000
310
000000000000000000000000000000000000000000000000000000000000000000000000000000000000000000000000000000000000000000000000000000000000000000000000000000000000000000000000000000000000000000000000000000FFFFFFFFFFFF00000000000000000000000000000000000000000000
310
00FFFFFFFFFFFFFFFFFFFFFF0000000000000000000000000000000000000000FFFFFFFFFFFFFFFFFFFFFFFFFF000000000000000000000000000000000000FFFFFFFFFF0000000000FFFFFFFFFFFF000000000000000000000000000000FFFFFFFF000000000000000000FFFFFFFF0000000000000000000000000000FFFF
310
FFFF0000000000000000000000FFFF00FF00000000000000000000000000FFFFFF00000000000000000000000000FFFFFFFF0000000000000000000000FFFFFFFF0000000000000000000000000000FFFFFF000000000000000000FFFFFFFFFF000000000000000000000000000000FFFFFF000000000000FFFFFF0000FFFF
310
FF000000000000000000000000000000FFFFFF00000000FFFF0000000000FFFFFF00000000000000000000000000000000FFFFFF00FFFF00000000000000FFFFFF00000000000000000000000000000000FFFFFF000000FFFFFFFF000000FFFFFF000000000000000000000000000000FFFFFF0000000000000000FFFFFFFF
310
FFFF000000000000000000000000000000FFFFFF0000000000000000000000FFFFFFFF0000000000000000000000000000FFFFFF000000000000000000000000FFFFFF00000000000000000000000000FFFFFFFF000000000000000000000000FFFFFFFF0000000000000000000000FFFFFFFF000000000000000000000000
310
0000FFFFFFFF000000000000000000FFFFFFFF00000000000000000000000000000000FFFFFFFFFF0000000000FFFFFFFFFFFF0000000000000000000000000000000000FFFFFFFFFFFFFFFFFFFFFFFFFF0000000000000000000000000000000000000000FFFFFFFFFFFFFFFFFFFFFF000000000000000000000000000000
310
000000000000000000FFFFFFFFFFFF00000000000000000000000000000000000000000000000000000000000000000000000000000000000000000000000000000000000000000000000000000000000000000000000000000000000000000000000000000000000000000000000000000000000000000000000000000000
310
0000000000000000000000000000000000000000000000000000000000000000000000000000000000000000000000000000000000000000
1001
AcDbDynamicBlockGUID
1000
{F3E28DDD-CAD6-4FFE-8E6A-6C8924CA59E8}
  0
BLOCK_RECORD
  5
120
102
{ACAD_XDICTIONARY
360
121
102
}
330
1
100
AcDbSymbolTableRecord
100
AcDbBlockTableRecord
  2
Juniper
340
0
310
2800000020000000200000000100080000000000000400000000000000000000000000000000000000000000000080000080000000808000800000008000800080800000C0C0C000C0DCC000F0CAA6000020400000206000002080000020A0000020C0000020E00000400000004020000040400000406000004080000040A0
310
000040C0000040E00000600000006020000060400000606000006080000060A0000060C0000060E00000800000008020000080400000806000008080000080A0000080C0000080E00000A0000000A0200000A0400000A0600000A0800000A0A00000A0C00000A0E00000C0000000C0200000C0400000C0600000C0800000C0
310
A00000C0C00000C0E00000E0000000E0200000E0400000E0600000E0800000E0A00000E0C00000E0E00040000000400020004000400040006000400080004000A0004000C0004000E00040200000402020004020400040206000402080004020A0004020C0004020E000404000004040200040404000404060004040800040
310
40A0004040C0004040E00040600000406020004060400040606000406080004060A0004060C0004060E00040800000408020004080400040806000408080004080A0004080C0004080E00040A0000040A0200040A0400040A0600040A0800040A0A00040A0C00040A0E00040C0000040C0200040C0400040C0600040C08000
310
40C0A00040C0C00040C0E00040E0000040E0200040E0400040E0600040E0800040E0A00040E0C00040E0E00080000000800020008000400080006000800080008000A0008000C0008000E00080200000802020008020400080206000802080008020A0008020C0008020E00080400000804020008040400080406000804080
310
008040A0008040C0008040E00080600000806020008060400080606000806080008060A0008060C0008060E00080800000808020008080400080806000808080008080A0008080C0008080E00080A0000080A0200080A0400080A0600080A0800080A0A00080A0C00080A0E00080C0000080C0200080C0400080C0600080C0
310
800080C0A00080C0C00080C0E00080E0000080E0200080E0400080E0600080E0800080E0A00080E0C00080E0E000C0000000C0002000C0004000C0006000C0008000C000A000C000C000C000E000C0200000C0202000C0204000C0206000C0208000C020A000C020C000C020E000C0400000C0402000C0404000C0406000C0
310
408000C040A000C040C000C040E000C0600000C0602000C0604000C0606000C0608000C060A000C060C000C060E000C0800000C0802000C0804000C0806000C0808000C080A000C080C000C080E000C0A00000C0A02000C0A04000C0A06000C0A08000C0A0A000C0A0C000C0A0E000C0C00000C0C02000C0C04000C0C06000
310
C0C08000C0C0A000F0FBFF00A4A0A000808080000000FF0000FF000000FFFF00FF000000FF00FF00FFFF0000FFFFFF00000000000000000000000000000000000000000000000000000000000000000000000000000000000000000000000000FF000000000000000000000000000000000000000000000000000000FFFFFF
310
FFFF000000000000000000000000000000000000000000000000FF0000FFFFFFFFFF00000000FF00000000000000000000000000000000000000FFFFFFFFFF0000FFFF0000FFFF00000000000000000000000000000000000000FF00000000FF0000FFF9FFFFFFFFFFFF000000000000000000000000FF0000FFF900000000
310
FF000000F9000000FF00FFFFFF00000000000000000000FFFFFFFF00F9000000FF0000F900000000FF0000FFFF000000000000000000FFFF00000000F9000000FF0000F9000000FF000000FF00000000000000000000FFFF0000000000F9FFFFFFFFFFFFFFFFFFFF000000FF0000000000000000000000FFFFFF000000F900
310
0000FF00F90000FF0000000000FFFFFFFF00000000000000FF0000FF000000F90000FFF90000FF00000000FFFF00FFFF00000000000000FFFFFF0000FF0000F900FFFFF9FF00FF0000FFFF000000F9F90000000000FFFF000000FFFFFFFFFF00F900000000FF00FFFF0000F9F9F900FFFF0000000000F9F9F9F9F9000000FF
310
FF000000FF0000FF00F9F9F9000000FF0000000000FFFFFF00000000F9F9F9F9F9000000FF0000F9F9000000000000FF00000000000000FF0000000000000000FF00FFFFFFFF00FFFFFFFFFF000000FF00000000000000FF00000000000000F9F9000000FF0000FFFF000000FFFFFFFFFFFFFF000000FFFFFF0000F9F9F9F9
310
0000FF00000000F90000FFFFFFFF0000FFFF0000000000FF00FFF9F900000000000000FFFFF9FF00F90000000000FFFFFF00000000000000000000FF000000000000FFFFFFF900FF00F9000000000000FFFF000000000000000000FF000000000000FF00FFF900FF0000F9000000000000FFFF0000000000000000FF000000
310
0000FFFFFF00F90000FF0000F9000000FFFFFF0000000000000000FF0000000000FFFF00FF00F90000FF000000F9FFFFFF000000000000000000FFFFFF000000FF00FF00FF00F9000000FF00FFFF0000FFFF00000000000000000000FF000000FFFF0000FF0000F90000FF00FF000000000000000000000000000000FFFFFF
310
FFFFFF00FF000000F9000000FFFF00000000000000000000000000000000FF0000FFFFFFFFFF0000F900FFFFFFFF00000000000000000000000000000000000000FF000000FFFFFFF9FFFF0000FF0000000000000000000000000000000000000000000000FFFFFFF900FF0000000000000000000000000000000000000000
310
000000000000FF0000FF00000000000000000000000000000000000000000000000000000000000000000000000000000000000000000000
102
{BLKREFS
331
11F
331
162
102
}
1001
AcDbDynamicBlockGUID
1000
{97F2BCC2-9A37-4D31-B390-F334E039F953}
1001
ACAD
1000
DesignCenter Data
1002
{
1070
     1
1070
     1
1002
}
  0
BLOCK_RECORD
  5
7D
102
{ACAD_XDICTIONARY
360
7E
102
}
330
1
100
AcDbSymbolTableRecord
100
AcDbBlockTableRecord
  2
Shrub4
340
0
310
2800000020000000200000000100080000000000000400000000000000000000000000000000000000000000000080000080000000808000800000008000800080800000C0C0C000C0DCC000F0CAA6000020400000206000002080000020A0000020C0000020E00000400000004020000040400000406000004080000040A0
310
000040C0000040E00000600000006020000060400000606000006080000060A0000060C0000060E00000800000008020000080400000806000008080000080A0000080C0000080E00000A0000000A0200000A0400000A0600000A0800000A0A00000A0C00000A0E00000C0000000C0200000C0400000C0600000C0800000C0
310
A00000C0C00000C0E00000E0000000E0200000E0400000E0600000E0800000E0A00000E0C00000E0E00040000000400020004000400040006000400080004000A0004000C0004000E00040200000402020004020400040206000402080004020A0004020C0004020E000404000004040200040404000404060004040800040
310
40A0004040C0004040E00040600000406020004060400040606000406080004060A0004060C0004060E00040800000408020004080400040806000408080004080A0004080C0004080E00040A0000040A0200040A0400040A0600040A0800040A0A00040A0C00040A0E00040C0000040C0200040C0400040C0600040C08000
310
40C0A00040C0C00040C0E00040E0000040E0200040E0400040E0600040E0800040E0A00040E0C00040E0E00080000000800020008000400080006000800080008000A0008000C0008000E00080200000802020008020400080206000802080008020A0008020C0008020E00080400000804020008040400080406000804080
310
008040A0008040C0008040E00080600000806020008060400080606000806080008060A0008060C0008060E00080800000808020008080400080806000808080008080A0008080C0008080E00080A0000080A0200080A0400080A0600080A0800080A0A00080A0C00080A0E00080C0000080C0200080C0400080C0600080C0
310
800080C0A00080C0C00080C0E00080E0000080E0200080E0400080E0600080E0800080E0A00080E0C00080E0E000C0000000C0002000C0004000C0006000C0008000C000A000C000C000C000E000C0200000C0202000C0204000C0206000C0208000C020A000C020C000C020E000C0400000C0402000C0404000C0406000C0
310
408000C040A000C040C000C040E000C0600000C0602000C0604000C0606000C0608000C060A000C060C000C060E000C0800000C0802000C0804000C0806000C0808000C080A000C080C000C080E000C0A00000C0A02000C0A04000C0A06000C0A08000C0A0A000C0A0C000C0A0E000C0C00000C0C02000C0C04000C0C06000
310
C0C08000C0C0A000F0FBFF00A4A0A000808080000000FF0000FF000000FFFF00FF000000FF00FF00FFFF0000FFFFFF0000000000000000000000000000000000000000000000000000000000000000000000000000000000000000000000000700000000000000000000000000000000000000000000000000000000000000
310
070000000000000000000000000000000000000000000000000007000000000007000000000007000000000000000000000000000000000000000007000000A407000000000007000000000000000000000000000000000000000007000000A4070000A400070000000000000000000000000000000007000000A400070000
310
A4070000A40007000000000007000000000000000000000007000000A4070000A4070000A407000000A4000700000000000000000000000000070000A400070000A400A400070000A40007000000000000000000000000000000070000A4070000A400A4070000A407070000000000000000000000000000A40000070000A4
310
0700A400A40700A40700000000A4000000000000000000000000A4A4000700A40700A400A400A407000000A4A4000007070000000007070700000000A4A40700A400FF0000A4070000A4A400070707000000000000000000070707070000A40700FF00FF000000A4A40707070000000000000000000000A4A4A4A400070707
310
0000FF0000FF00000707000000000000000000000000000000000000A4A4A4A400FF00000000FF00A4A4A4A4A4A4A4A400000000000000000000000707070707FF000000000000FF07070707070000000000000000070707070707000000A4A400FF00000000FF00A4000000000707070707070000000000000000A4A4A400
310
070000FF00FFFF000007A4A40000000000000000000000000000A4A40000070700A40000FF000007A4000707A4A4000000000000000000000000000000070000A400A400A400A40007A400000707A4A40000000000000000000000070700A4A40007A400A40007A40007A4000000070700000000000000000007070000A400
310
0007A40000A40007A4000700A400000000070700000000000007000000A400000700A40007A4000007A4000700A400000000000000000000000000000000000007A4000007A4000007A400000700A4000000000000000000000000000000000700A4000007A400000700A40000070000000000000000000000000000000007
310
00A400000007A400000700A40000070000000000000000000000000000000700000000000007A400000007000000000700000000000000000000000000000000000000000700000000000700000000000000000000000000000000000000000000000000070000000000070000000000000000000000000000000000000000
310
0000000000070000000000000000000000000000000000000000000000000000000000000000000000000000000000000000000000000000
102
{BLKREFS
331
7B
102
}
1001
AcDbDynamicBlockGUID
1000
{5247D75B-5561-4109-95CC-12D7C3CED2BC}
  0
BLOCK_RECORD
  5
DD
102
{ACAD_XDICTIONARY
360
DE
102
}
330
1
100
AcDbSymbolTableRecord
100
AcDbBlockTableRecord
  2
*U7
340
0
102
{BLKREFS
331
BF
102
}
1001
AcDbBlockRepBTag
1070
     1
1005
C3
  0
ENDTAB
  0
ENDSEC
  0
SECTION
  2
BLOCKS
  0
BLOCK
  5
6
330
2
100
AcDbEntity
  8
0
100
AcDbBlockBegin
  2
*Model_Space
 70
     0
 10
0.0
 20
0.0
 30
0.0
  3
*Model_Space
  1

  0
ENDBLK
  5
1A
330
2
100
AcDbEntity
  8
0
100
AcDbBlockEnd
  0
BLOCK
  5
20
330
1F
100
AcDbEntity
 67
     1
  8
0
100
AcDbBlockBegin
  2
*Paper_Space
 70
     0
 10
0.0
 20
0.0
 30
0.0
  3
*Paper_Space
  1

  0
ENDBLK
  5
21
330
1F
100
AcDbEntity
 67
     1
  8
0
100
AcDbBlockEnd
  0
BLOCK
  5
A8
330
A5
100
AcDbEntity
  8
0
100
AcDbBlockBegin
  2
titleblock
 70
     2
 10
0.0
 20
0.0
 30
0.0
  3
titleblock
  1

  0
LWPOLYLINE
  5
A9
330
A5
100
AcDbEntity
  8
0
 62
     8
100
AcDbPolyline
 90
        8
 70
   129
 43
0.05
 10
0.25
 20
0.0
 10
16.25
 20
0.0
 42
0.4142135623730951
 10
16.5
 20
0.25
 10
16.5
 20
10.25
 42
0.4142135623730951
 10
16.25
 20
10.5
 10
0.25
 20
10.5
 42
0.4142135623730951
 10
0.0
 20
10.25
 10
0.0
 20
0.25
 42
0.4142135623730951
  0
ATTDEF
  5
AA
102
{ACAD_XDICTIONARY
360
AB
102
}
330
A5
100
AcDbEntity
  8
LP_TitleBlock
 62
     7
100
AcDbText
 10
-0.035
 20
0.25
 30
0.0
 40
0.085
  1
17MM EZ-ID CV DRIP RING LAYOUT FOR TREES & SHRUBS.DWG - March 2, 2015
 50
90.0
  7
Arial
100
AcDbAttributeDefinition
  3
MOD_DATE
  2
MOD_DATE
 70
     8
1001
AcDbAttr
1070
     0
1070
     1
  0
LWPOLYLINE
  5
B0
330
A5
100
AcDbEntity
  8
defpoints
100
AcDbPolyline
 90
        4
 70
   129
 43
0.0
 10
-0.2499999999999982
 20
-0.25
 10
16.75
 20
-0.25
 10
16.75
 20
10.75
 10
-0.2499999999999982
 20
10.75
  0
TEXT
  5
B4
330
A5
100
AcDbEntity
  8
0
100
AcDbText
 10
0.2438608458390177
 20
-0.125448378586466
 30
0.0
 40
0.085
  1
LANDSCAPE PRODUCTS PRESENTS THIS PLAN AS A GENERAL GUIDE AND OFFERS NO INDEMNITY, EXPRESSED OR IMPLIED, FOR PROJECTS INSTALLED USING THIS PLAN. SINCE EACH SITE AND SYSTEM CONTAINS MANY VARIABLES, LANDSCAPE PRODUCTS EXPRESSLY RECOMMENDS THE USE OF A QUALIFIED IRRIGATION DESIGNER.
  7
ArialNarrow
100
AcDbText
  0
ENDBLK
  5
B6
330
A5
100
AcDbEntity
  8
0
100
AcDbBlockEnd
  0
BLOCK
  5
CE
330
C3
100
AcDbEntity
  8
0
100
AcDbBlockBegin
  2
*U1
 70
     3
 10
0.0
 20
0.0
 30
0.0
  3
*U1
  1

  0
ATTDEF
  5
CF
330
C3
100
AcDbEntity
  8
0
100
AcDbText
 10
0.590628004818524
 20
0.4858094721253013
 30
0.0
 40
0.5
  1
1
  7
ArialNarrow
 72
     1
 11
0.7499049488840083
 21
0.7358094721253013
 31
0.0
100
AcDbAttributeDefinition
  3
Number:
  2
#
 70
     0
 74
     2
1001
AcDbBlockRepETag
1070
     1
1071
        0
1005
0
1001
AcDbAttr
1070
     0
1070
     1
  0
ATTDEF
  5
D1
330
C3
100
AcDbEntity
  8
0
100
AcDbText
 10
1.185834988647621
 20
0.7858094721253015
 30
0.0
 40
0.25
  1

  7
ArialNarrow
 11
1.185834988647621
 21
0.9108094721253014
 31
0.0
100
AcDbAttributeDefinition
  3
Enter Line 1 Description:
  2
NAME1
 70
     0
 74
     2
1001
AcDbBlockRepETag
1070
     1
1071
        1
1005
0
1001
AcDbAttr
1070
     0
1070
     1
  0
ATTDEF
  5
D2
330
C3
100
AcDbEntity
  8
0
100
AcDbText
 10
1.185834988647621
 20
0.5108094721253015
 30
0.0
 40
0.15
  1
N.T.S
  7
ArialNarrow
 11
1.185834988647621
 21
0.5858094721253014
 31
0.0
100
AcDbAttributeDefinition
  3
Enter Line 2 Description:
  2
NAME2
 70
     0
 74
     2
1001
AcDbBlockRepETag
1070
     1
1071
        2
1005
0
1001
AcDbAttr
1070
     0
1070
     1
  0
LWPOLYLINE
  5
D3
330
C3
100
AcDbEntity
  8
0
 62
     8
100
AcDbPolyline
 90
        2
 70
   128
 43
0.05
 10
1.185834988647621
 20
0.7358094721253014
 10
7.68583498864762
 20
0.7358094721253014
1001
AcDbBlockRepETag
1070
     1
1071
        5
1005
D3
  0
LWPOLYLINE
  5
D4
330
C3
100
AcDbEntity
  8
0
 62
     8
100
AcDbPolyline
 90
        2
 70
   129
 43
0.025
 10
7.67333498864762
 20
0.7358094721253013
 42
1.0
 10
7.69833498864762
 20
0.7358094721253013
 42
1.0
1001
AcDbBlockRepETag
1070
     1
1071
        6
1005
D4
  0
LWPOLYLINE
  5
D5
330
C3
100
AcDbEntity
  8
0
 62
     8
100
AcDbPolyline
 90
        2
 70
   129
 43
0.025
 10
1.173334988647621
 20
0.7358094721253013
 42
1.0
 10
1.198334988647621
 20
0.7358094721253013
 42
1.0
1001
AcDbBlockRepETag
1070
     1
1071
        7
1005
D5
  0
LWPOLYLINE
  5
D6
330
C3
100
AcDbEntity
  8
0
 62
     8
100
AcDbPolyline
 90
        8
 70
     1
 43
0.05
 10
0.5749049488840083
 20
1.110809472125301
 10
0.9249049488840082
 20
1.110809472125301
 42
-0.4142135623730951
 10
1.124904948884008
 20
0.9108094721253012
 10
1.124904948884008
 20
0.5608094721253013
 42
-0.4142135623730951
 10
0.9249049488840082
 20
0.3608094721253012
 10
0.5749049488840085
 20
0.3608094721253012
 42
-0.4142135623730951
 10
0.3749049488840083
 20
0.5608094721253013
 10
0.3749049488840082
 20
0.9108094721253012
 42
-0.4142135623730951
1001
AcDbBlockRepETag
1070
     1
1071
       12
1005
D6
  0
ENDBLK
  5
D7
330
C3
100
AcDbEntity
  8
0
100
AcDbBlockEnd
  0
BLOCK
  5
F7
330
F6
100
AcDbEntity
  8
0
100
AcDbBlockBegin
  2
i_cross
 70
     0
 10
0.0
 20
0.0
 30
0.0
  3
i_cross
  1

  0
LWPOLYLINE
  5
F8
330
F6
100
AcDbEntity
  8
0
100
AcDbPolyline
 90
        2
 70
   128
 43
0.1
 10
0.0
 20
0.0750000000000002
 10
0.0
 20
-0.0750000000000002
  0
LWPOLYLINE
  5
F9
330
F6
100
AcDbEntity
  8
0
100
AcDbPolyline
 90
        2
 70
   128
 43
0.1
 10
0.0749999999999993
 20
0.0
 10
-0.0749999999999993
 20
0.0
  0
ENDBLK
  5
FA
330
F6
100
AcDbEntity
  8
0
100
AcDbBlockEnd
  0
BLOCK
  5
F1
330
F0
100
AcDbEntity
  8
0
100
AcDbBlockBegin
  2
i_tee
 70
     0
 10
0.0
 20
0.0
 30
0.0
  3
i_tee
  1

  0
LWPOLYLINE
  5
F2
330
F0
100
AcDbEntity
  8
0
100
AcDbPolyline
 90
        2
 70
   128
 43
0.1
 10
0.0
 20
0.0750000000000002
 10
0.0
 20
-0.0499999999999998
  0
LWPOLYLINE
  5
F3
330
F0
100
AcDbEntity
  8
0
100
AcDbPolyline
 90
        2
 70
   128
 43
0.1
 10
-0.0749999999999993
 20
0.0
 10
0.0749999999999993
 20
0.0
  0
ENDBLK
  5
F4
330
F0
100
AcDbEntity
  8
0
100
AcDbBlockEnd
  0
BLOCK
  5
117
330
115
100
AcDbEntity
  8
0
100
AcDbBlockBegin
  2
_CustomLeaderRJP
 70
     0
 10
0.0
 20
0.0
 30
0.0
  3
_CustomLeaderRJP
  1

  0
LWPOLYLINE
  5
118
330
115
100
AcDbEntity
  8
0
 62
     0
100
AcDbPolyline
 90
        2
 70
     0
 43
0.025
 10
0.0
 20
0.0
 42
-0.1295107042558346
 10
-1.0
 20
0.3557325540248151
 42
-0.1295107042558346
  0
LWPOLYLINE
  5
119
330
115
100
AcDbEntity
  8
0
100
AcDbPolyline
 90
        2
 70
   128
 10
0.0
 20
0.0
 40
0.0
 41
0.2
 10
-0.5
 20
0.0
 40
0.025
 41
0.025
  0
LWPOLYLINE
  5
11A
330
115
100
AcDbEntity
  8
0
 62
     0
100
AcDbPolyline
 90
        2
 70
     0
 43
0.025
 10
0.0
 20
0.0
 42
0.1295107042558346
 10
-1.0
 20
-0.3557325540248151
 42
0.1295107042558346
  0
LWPOLYLINE
  5
11B
330
115
100
AcDbEntity
  8
0
100
AcDbPolyline
 90
        2
 70
   128
 10
-1.0
 20
0.0000000000000001
 40
0.0
 41
0.2
 10
-0.5
 20
0.0
 40
0.025
 41
0.025
  0
ENDBLK
  5
11C
330
115
100
AcDbEntity
  8
0
100
AcDbBlockEnd
  0
BLOCK
  5
123
330
120
100
AcDbEntity
  8
0
100
AcDbBlockBegin
  2
Juniper
 70
     0
 10
0.0
 20
0.0
 30
0.0
  3
Juniper
  1

  0
LINE
  5
124
330
120
100
AcDbEntity
  8
0
 62
     0
100
AcDbLine
 10
-2.160319497328465
 20
-0.7850098875627588
 30
0.0
 11
-4.680763538926839
 21
-1.700880663283169
 31
0.0
  0
LINE
  5
125
330
120
100
AcDbEntity
  8
0
 62
     0
100
AcDbLine
 10
-1.990581734205292
 20
-1.149262900104697
 30
0.0
 11
-4.635682080313563
 21
-2.676412297040224
 31
0.0
  0
LWPOLYLINE
  5
126
330
120
100
AcDbEntity
  8
0
 62
     0
100
AcDbPolyline
 90
       27
 70
     0
 43
0.0
 10
0.5445766355842352
 20
6.05784423649311
 42
-0.9999999999999998
 10
-0.4890211846679449
 20
6.062581858225167
 42
-0.9999999999999998
 10
-2.484408334642648
 20
5.551734479703009
 42
-0.9999999999999998
 10
-3.805488527193665
 20
4.744712591543794
 42
-0.9999999999999998
 10
-4.194879617542028
 20
4.40420543346554
 42
-0.9999999999999998
 10
-4.880042665824294
 20
3.630320108309388
 42
-0.9999999999999998
 10
-5.943227158859372
 20
1.293093749321997
 42
-0.9999999999999998
 10
-6.077166410908103
 20
-0.2491764863952994
 42
-0.9999999999999998
 10
-5.947224099189043
 20
-1.274584646336734
 42
-0.9999999999999998
 10
-5.180804266780615
 20
-3.18642552960664
 42
-0.9999999999999998
 10
-4.566460101678967
 20
-4.01764640621841
 42
-0.9999999999999998
 10
-2.963698809966444
 20
-5.311358570680022
 42
-0.9999999999999998
 10
-1.526833400130271
 20
-5.88751392941922
 42
-0.9999999999999998
 10
-1.021055864170193
 20
-5.995955755934119
 42
-0.9999999999999998
 10
0.0089428879320622
 20
-6.082266068458557
 42
-0.9999999999999998
 10
2.517972306534648
 20
-5.536592450924217
 42
-0.9999999999999998
 10
3.834142681956291
 20
-4.721587698720395
 42
-0.9999999999999998
 10
4.578254797682165
 20
-4.004200733080506
 42
-0.9999999999999998
 10
5.652163339033723
 20
-2.246572966501116
 42
-0.9999999999999998
 10
5.950946475937962
 20
-1.257090507633984
 42
-0.9999999999999998
 10
6.029277034848928
 20
0.8011609941720962
 42
-0.9999999999999998
 10
5.631728060543537
 20
2.297320082038641
 42
-0.9999999999999998
 10
5.416160592809319
 20
2.767534089647233
 42
-0.9999999999999998
 10
4.869346111640334
 20
3.644654846563935
 42
-0.9999999999999998
 10
2.931490207463502
 20
5.32920309882611
 42
-0.9999999999999998
 10
1.491163156181573
 20
5.896649298258125
 42
-0.9999999999999998
 10
0.5895479105412961
 20
6.053633104823529
  0
LINE
  5
127
330
120
100
AcDbEntity
  8
0
 62
     0
100
AcDbLine
 10
-0.477890385549446
 20
-2.248297496664578
 30
0.0
 11
-1.20970278866589
 21
-5.691204161942005
 31
0.0
  0
LINE
  5
128
330
120
100
AcDbEntity
  8
0
 62
     0
100
AcDbLine
 10
1.35103956743517
 20
-1.859546434304182
 30
0.0
 11
3.164196816086769
 21
-4.355143290571868
 31
0.0
  0
LINE
  5
129
330
120
100
AcDbEntity
  8
0
 62
     0
100
AcDbLine
 10
1.990581734215624
 20
-1.149262900086802
 30
0.0
 11
4.307236222177744
 21
-2.486783992312848
 31
0.0
  0
LINE
  5
12A
330
120
100
AcDbEntity
  8
0
 62
     0
100
AcDbLine
 10
2.186027940146343
 20
0.7102835342370984
 30
0.0
 11
5.062395169958472
 21
1.644871900789439
 31
0.0
  0
LINE
  5
12B
330
120
100
AcDbEntity
  8
0
 62
     0
100
AcDbLine
 10
2.272404443296703
 20
0.345541459443305
 30
0.0
 11
5.52142830863595
 21
0.8395875133574008
 31
0.0
  0
LINE
  5
12C
330
120
100
AcDbEntity
  8
0
 62
     0
100
AcDbLine
 10
-0.9348946679512302
 20
2.09980780404902
 30
0.0
 11
-2.310083571076393
 21
5.188532651402056
 31
0.0
  0
LINE
  5
12D
330
120
100
AcDbEntity
  8
0
 62
     0
100
AcDbLine
 10
0.9348946679461466
 20
2.099807804051283
 30
0.0
 11
2.155315446108579
 21
4.840917751379311
 31
0.0
  0
LINE
  5
12E
330
120
100
AcDbEntity
  8
0
 62
     0
100
AcDbLine
 10
-0.5396480287365956
 20
2.234278599277519
 30
0.0
 11
-1.166215908527374
 21
4.828427247330546
 31
0.0
  0
LINE
  5
12F
330
120
100
AcDbEntity
  8
0
 62
     0
100
AcDbLine
 10
-1.200470087000249
 20
1.960125614425367
 30
0.0
 11
-2.746561174467206
 21
4.484580638632178
 31
0.0
  0
LINE
  5
130
330
120
100
AcDbEntity
  8
0
 62
     0
100
AcDbLine
 10
0.0
 20
0.0
 30
0.0
 11
0.8109696857631206
 21
0.0
 31
0.0
  0
LINE
  5
131
330
120
100
AcDbEntity
  8
0
 62
     0
100
AcDbLine
 10
0.0
 20
0.0
 30
0.0
 11
0.0
 21
0.8109696857631206
 31
0.0
  0
LINE
  5
132
330
120
100
AcDbEntity
  8
0
 62
     0
100
AcDbLine
 10
0.0
 20
0.0
 30
0.0
 11
-0.8109696857631206
 21
0.0
 31
0.0
  0
LINE
  5
133
330
120
100
AcDbEntity
  8
0
 62
     0
100
AcDbLine
 10
0.0
 20
0.0
 30
0.0
 11
0.0
 21
-0.8109696857631206
 31
0.0
  0
LWPOLYLINE
  5
134
330
120
100
AcDbEntity
  8
0
 62
     0
100
AcDbPolyline
 90
        2
 70
     0
 43
0.0
 10
0.5165045199278508
 20
-2.239741934911902
 10
1.047846252843737
 20
-4.543823148496449
  0
LWPOLYLINE
  5
135
330
120
100
AcDbEntity
  8
0
 62
     0
100
AcDbPolyline
 90
        2
 70
     0
 43
0.0
 10
-2.181206951740647
 20
0.7249531624781572
 10
-4.548145643249154
 20
1.511636740900576
  0
LWPOLYLINE
  5
136
330
120
100
AcDbEntity
  8
0
 62
     0
100
AcDbPolyline
 90
        2
 70
     0
 43
0.0
 10
0.3048606609922099
 20
2.278218784815936
 10
0.7520187433809042
 20
5.619823896512389
  0
LWPOLYLINE
  5
137
330
120
100
AcDbEntity
  8
0
 62
     0
100
AcDbPolyline
 90
        2
 70
     0
 43
0.0
 10
-2.290420729240938
 20
-0.1928567789117564
 10
-5.585496785119175
 20
-0.470307007431984
  0
LWPOLYLINE
  5
138
330
120
100
AcDbEntity
  8
0
 62
     0
100
AcDbPolyline
 90
        2
 70
     0
 43
0.0
 10
1.600513206357261
 20
1.649720682535321
 10
3.268741688877344
 20
3.369238534383475
  0
LWPOLYLINE
  5
139
330
120
100
AcDbEntity
  8
0
 62
     0
100
AcDbPolyline
 90
        2
 70
     0
 43
0.0
 10
2.230272634878454
 20
-0.5559719671180634
 10
5.462571246549487
 20
-1.361733285151422
  0
LWPOLYLINE
  5
13A
330
120
100
AcDbEntity
  8
0
 62
     0
100
AcDbPolyline
 90
        2
 70
     0
 43
0.0
 10
-1.327402924789618
 20
-1.876492027526036
 10
-2.902059112116694
 20
-4.102515284717083
  0
CIRCLE
  5
13B
330
120
100
AcDbEntity
  8
0
 62
     0
100
AcDbCircle
 10
0.0
 20
0.0
 30
0.0
 40
2.298525800183415
  0
ENDBLK
  5
13C
330
120
100
AcDbEntity
  8
0
100
AcDbBlockEnd
  0
BLOCK
  5
80
330
7D
100
AcDbEntity
  8
0
100
AcDbBlockBegin
  2
Shrub4
 70
     0
 10
0.0
 20
0.0
 30
0.0
  3
Shrub4
  1

  0
LWPOLYLINE
  5
81
330
7D
100
AcDbEntity
  8
0
 62
     0
100
AcDbPolyline
 90
        2
 70
     0
 43
0.0
 10
0.666411414116835
 20
-0.0184464542688387
 10
1.999234242348458
 20
-0.0553393628110636
  0
LWPOLYLINE
  5
82
330
7D
100
AcDbEntity
  8
0
 62
     0
100
AcDbPolyline
 90
        2
 70
     0
 43
0.0
 10
0.6012942714060651
 20
-0.2879056159872939
 10
1.803882814205841
 20
-0.8637168479770398
  0
LWPOLYLINE
  5
83
330
7D
100
AcDbEntity
  8
0
 62
     0
100
AcDbPolyline
 90
        2
 70
     0
 43
0.0
 10
0.4322078865794567
 20
-0.5075832811745338
 10
1.296623659720634
 20
-1.522749843515112
  0
LWPOLYLINE
  5
84
330
7D
100
AcDbEntity
  8
0
 62
     0
100
AcDbPolyline
 90
        2
 70
     0
 43
0.0
 10
0.4596246606522343
 20
0.482897106910245
 10
1.378873981952458
 20
1.448691320727399
  0
LWPOLYLINE
  5
85
330
7D
100
AcDbEntity
  8
0
 62
     0
100
AcDbPolyline
 90
        2
 70
     0
 43
0.0
 10
0.6162999691721992
 20
0.2542022669826372
 10
1.848899907519553
 20
0.7626068009312376
  0
LWPOLYLINE
  5
86
330
7D
100
AcDbEntity
  8
0
 62
     0
100
AcDbPolyline
 90
        2
 70
     0
 43
0.0
 10
0.6572955284462961
 20
-0.1113868610894993
 10
1.579765588445412
 20
-0.2677108279779929
  0
LWPOLYLINE
  5
87
330
7D
100
AcDbEntity
  8
0
 62
     0
100
AcDbPolyline
 90
        2
 70
     0
 43
0.0
 10
0.5551642263803833
 20
-0.3691031377392223
 10
1.334299873979235
 20
-0.8871145631536489
  0
LWPOLYLINE
  5
88
330
7D
100
AcDbEntity
  8
0
 62
     0
100
AcDbPolyline
 90
        2
 70
     0
 43
0.0
 10
0.5225931249499525
 20
0.4139334128759676
 10
1.256017422635648
 20
0.9948611138683908
  0
LWPOLYLINE
  5
89
330
7D
100
AcDbEntity
  8
0
 62
     0
100
AcDbPolyline
 90
        2
 70
     0
 43
0.0
 10
0.6457744622997394
 20
0.1655892157608716
 10
1.552075480950529
 20
0.3979825414319408
  0
CIRCLE
  5
8A
330
7D
100
AcDbEntity
  8
0
 62
     0
100
AcDbCircle
 10
0.0
 20
0.0
 30
0.0
 40
0.5182622240130012
  0
LWPOLYLINE
  5
8B
330
7D
100
AcDbEntity
  8
0
 62
     0
100
AcDbPolyline
 90
        2
 70
     0
 43
0.0
 10
-0.3491808050615712
 20
-0.5679059868639258
 10
-1.047542415191686
 20
-1.703717960583591
  0
LWPOLYLINE
  5
8C
330
7D
100
AcDbEntity
  8
0
 62
     0
100
AcDbPolyline
 90
        2
 70
     0
 43
0.0
 10
0.1883888316722035
 20
-0.6394951857857503
 10
0.5651664950140337
 20
-1.918485557350884
  0
LWPOLYLINE
  5
8D
330
7D
100
AcDbEntity
  8
0
 62
     0
100
AcDbPolyline
 90
        2
 70
     0
 43
0.0
 10
-0.0880043636858654
 20
-0.6608325631414457
 10
-0.2640130910550949
 20
-1.982497689431006
  0
LWPOLYLINE
  5
8E
330
7D
100
AcDbEntity
  8
0
 62
     0
100
AcDbPolyline
 90
        2
 70
     0
 43
0.0
 10
-0.5499807130406456
 20
-0.3767833061872631
 10
-1.649942139124437
 20
-1.130349918556029
  0
LWPOLYLINE
  5
8F
330
7D
100
AcDbEntity
  8
0
 62
     0
100
AcDbPolyline
 90
        2
 70
     0
 43
0.0
 10
-0.655683959315503
 20
-0.1205113689045685
 10
-1.967051877948934
 20
-0.361534106707036
  0
LWPOLYLINE
  5
90
330
7D
100
AcDbEntity
  8
0
 62
     0
100
AcDbPolyline
 90
        2
 70
     0
 43
0.0
 10
-0.6480134923176923
 20
0.1565980788724736
 10
-1.944040476962323
 20
0.4697942366268191
  0
LWPOLYLINE
  5
91
330
7D
100
AcDbEntity
  8
0
 62
     0
100
AcDbPolyline
 90
        2
 70
     0
 43
0.0
 10
-0.5282956054932308
 20
0.406630296166994
 10
-1.584886816464458
 20
1.219890888499769
  0
LWPOLYLINE
  5
92
330
7D
100
AcDbEntity
  8
0
 62
     0
100
AcDbPolyline
 90
        2
 70
     0
 43
0.0
 10
-0.3172306090529899
 20
0.5863524411318551
 10
-0.9516918271501022
 20
1.759057323391623
  0
LWPOLYLINE
  5
93
330
7D
100
AcDbEntity
  8
0
 62
     0
100
AcDbPolyline
 90
        2
 70
     0
 43
0.0
 10
-0.0513135583592804
 20
0.6646889221824393
 10
-0.1539406750708684
 20
1.994066766539132
  0
LWPOLYLINE
  5
94
330
7D
100
AcDbEntity
  8
0
 62
     0
100
AcDbPolyline
 90
        2
 70
     0
 43
0.0
 10
0.2234760727385474
 20
0.6280946500724327
 10
0.6704282182283751
 20
1.884283950222451
  0
LWPOLYLINE
  5
95
330
7D
100
AcDbEntity
  8
0
 62
     0
100
AcDbPolyline
 90
        2
 70
     0
 43
0.0
 10
0.3570399860644124
 20
-0.5629981286801159
 10
0.8581215895662529
 20
-1.35312813117564
  0
LWPOLYLINE
  5
96
330
7D
100
AcDbEntity
  8
0
 62
     0
100
AcDbPolyline
 90
        2
 70
     0
 43
0.0
 10
0.0971802885507058
 20
-0.6595456284896681
 10
0.2335662865295302
 20
-1.585173552537762
  0
LWPOLYLINE
  5
97
330
7D
100
AcDbEntity
  8
0
 62
     0
100
AcDbPolyline
 90
        2
 70
     0
 43
0.0
 10
-0.179482763712877
 20
-0.6420516973447215
 10
-0.4313747493352721
 20
-1.543128065807047
  0
LWPOLYLINE
  5
98
330
7D
100
AcDbEntity
  8
0
 62
     0
100
AcDbPolyline
 90
        2
 70
     0
 43
0.0
 10
-0.4251116155710609
 20
-0.5135411948838668
 10
-1.02172717211484
 20
-1.234261717624735
  0
LWPOLYLINE
  5
99
330
7D
100
AcDbEntity
  8
0
 62
     0
100
AcDbPolyline
 90
        2
 70
     0
 43
0.0
 10
-0.5972348070860559
 20
-0.2962347544456406
 10
-1.435413684742093
 20
-0.7119803055508714
  0
LWPOLYLINE
  5
9A
330
7D
100
AcDbEntity
  8
0
 62
     0
100
AcDbPolyline
 90
        2
 70
     0
 43
0.0
 10
-0.6660906747449519
 20
-0.0277066337538696
 10
-1.600904130951161
 20
-0.0665910305095135
  0
LWPOLYLINE
  5
9B
330
7D
100
AcDbEntity
  8
0
 62
     0
100
AcDbPolyline
 90
        2
 70
     0
 43
0.0
 10
-0.6197734134962624
 20
0.2456122156118815
 10
-1.489583709162678
 20
0.590312438663005
  0
LWPOLYLINE
  5
9C
330
7D
100
AcDbEntity
  8
0
 62
     0
100
AcDbPolyline
 90
        2
 70
     0
 43
0.0
 10
-0.4662916985937594
 20
0.4764624815920353
 10
-1.120700731617758
 20
1.145145524381472
  0
LWPOLYLINE
  5
9D
330
7D
100
AcDbEntity
  8
0
 62
     0
100
AcDbPolyline
 90
        2
 70
     0
 43
0.0
 10
-0.2321839128730373
 20
0.6249280559724565
 10
-0.5580384163220079
 20
1.501972545604244
  0
LWPOLYLINE
  5
9E
330
7D
100
AcDbEntity
  8
0
 62
     0
100
AcDbPolyline
 90
        2
 70
     0
 43
0.0
 10
0.0420705807056726
 20
0.665337892184863
 10
0.1011138107692251
 20
1.599094868706945
  0
LWPOLYLINE
  5
9F
330
7D
100
AcDbEntity
  8
0
 62
     0
100
AcDbPolyline
 90
        2
 70
     0
 43
0.0
 10
0.3090506886849354
 20
0.5907047624318632
 10
0.7427825413891533
 20
1.419719161688791
  0
ENDBLK
  5
A0
330
7D
100
AcDbEntity
  8
0
100
AcDbBlockEnd
  0
BLOCK
  5
E0
330
DD
100
AcDbEntity
  8
0
100
AcDbBlockBegin
  2
*U7
 70
     3
 10
0.0
 20
0.0
 30
0.0
  3
*U7
  1

  0
ATTDEF
  5
E1
330
DD
100
AcDbEntity
  8
0
100
AcDbText
 10
0.590628004818524
 20
0.4858094721253013
 30
0.0
 40
0.5
  1
1
  7
ArialNarrow
 72
     1
 11
0.7499049488840083
 21
0.7358094721253013
 31
0.0
100
AcDbAttributeDefinition
  3
Number:
  2
#
 70
     0
 74
     2
1001
AcDbBlockRepETag
1070
     1
1071
        0
1005
0
1001
AcDbAttr
1070
     0
1070
     1
  0
ATTDEF
  5
E2
330
DD
100
AcDbEntity
  8
0
100
AcDbText
 10
1.185834988647621
 20
0.7858094721253015
 30
0.0
 40
0.25
  1

  7
ArialNarrow
 11
1.185834988647621
 21
0.9108094721253014
 31
0.0
100
AcDbAttributeDefinition
  3
Enter Line 1 Description:
  2
NAME1
 70
     0
 74
     2
1001
AcDbBlockRepETag
1070
     1
1071
        1
1005
0
1001
AcDbAttr
1070
     0
1070
     1
  0
ATTDEF
  5
E3
330
DD
100
AcDbEntity
  8
0
100
AcDbText
 10
1.185834988647621
 20
0.5108094721253015
 30
0.0
 40
0.15
  1
N.T.S
  7
ArialNarrow
 11
1.185834988647621
 21
0.5858094721253014
 31
0.0
100
AcDbAttributeDefinition
  3
Enter Line 2 Description:
  2
NAME2
 70
     0
 74
     2
1001
AcDbBlockRepETag
1070
     1
1071
        2
1005
0
1001
AcDbAttr
1070
     0
1070
     1
  0
LWPOLYLINE
  5
E4
330
DD
100
AcDbEntity
  8
0
 62
     8
100
AcDbPolyline
 90
        2
 70
   128
 43
0.05
 10
1.185834988647621
 20
0.7358094721253014
 10
11.85250165531428
 20
0.7358094721253014
1001
AcDbBlockRepETag
1070
     1
1071
        5
1005
E4
  0
LWPOLYLINE
  5
E5
330
DD
100
AcDbEntity
  8
0
 62
     8
100
AcDbPolyline
 90
        2
 70
   129
 43
0.025
 10
11.84000165531428
 20
0.7358094721253013
 42
1.0
 10
11.86500165531429
 20
0.7358094721253013
 42
1.0
1001
AcDbBlockRepETag
1070
     1
1071
        6
1005
E5
  0
LWPOLYLINE
  5
E6
330
DD
100
AcDbEntity
  8
0
 62
     8
100
AcDbPolyline
 90
        2
 70
   129
 43
0.025
 10
1.173334988647621
 20
0.7358094721253013
 42
1.0
 10
1.198334988647621
 20
0.7358094721253013
 42
1.0
1001
AcDbBlockRepETag
1070
     1
1071
        7
1005
E6
  0
LWPOLYLINE
  5
E7
330
DD
100
AcDbEntity
  8
0
 62
     8
100
AcDbPolyline
 90
        8
 70
     1
 43
0.05
 10
0.5749049488840083
 20
1.110809472125301
 10
0.9249049488840082
 20
1.110809472125301
 42
-0.4142135623730951
 10
1.124904948884008
 20
0.9108094721253012
 10
1.124904948884008
 20
0.5608094721253013
 42
-0.4142135623730951
 10
0.9249049488840082
 20
0.3608094721253012
 10
0.5749049488840085
 20
0.3608094721253012
 42
-0.4142135623730951
 10
0.3749049488840083
 20
0.5608094721253013
 10
0.3749049488840082
 20
0.9108094721253012
 42
-0.4142135623730951
1001
AcDbBlockRepETag
1070
     1
1071
       12
1005
E7
  0
ENDBLK
  5
E8
330
DD
100
AcDbEntity
  8
0
100
AcDbBlockEnd
  0
ENDSEC
  0
SECTION
  2
ENTITIES
  0
INSERT
  5
7B
330
2
100
AcDbEntity
  8
LP_Detail
 62
     8
100
AcDbBlockReference
  2
Shrub4
 10
60.62774724796205
 20
-16.4464908092582
 30
0.0
 41
0.12
 42
0.12
 43
0.12
 50
13.91386164721049
1001
RJP
1000
© - 20150224
  0
INSERT
  5
A3
330
2
100
AcDbEntity
  8
LP_TitleBlock
100
AcDbBlockReference
 66
     1
  2
titleblock
 10
54.0
 20
-24.0
 30
0.0
1001
RJP
1000
© - 20150224
1001
PE_URL
1000
http://www.landscapeproductsinc.com/index.htm
1002
{
1000
Landscape Products Web Page
1002
{
1071
        1
1002
}
1002
}
  0
ATTRIB
  5
B7
102
{ACAD_XDICTIONARY
360
B8
102
}
330
A3
100
AcDbEntity
  8
LP_TitleBlock
 62
     7
100
AcDbText
 10
53.965
 20
-23.75
 30
0.0
 40
0.085
  1
MODEL - March 2, 2015
 50
90.0
  7
Arial
100
AcDbAttribute
  2
MOD_DATE
 70
     0
1001
AcDbAttr
1070
     0
1070
     1
  0
SEQEND
  5
BD
330
A3
100
AcDbEntity
  8
LP_TitleBlock
  0
INSERT
  5
BF
102
{ACAD_XDICTIONARY
360
C0
102
}
330
2
100
AcDbEntity
  8
LP_TitleBlock
100
AcDbBlockReference
 66
     1
  2
*U7
 10
54.0
 20
-24.0
 30
0.0
 41
0.75
 42
0.75
 43
0.75
1001
RJP
1000
© - 20150224
1001
PE_URL
1000
http://www.landscapeproductsinc.com/index.htm
1002
{
1000
Landscape Products Web Page
1002
{
1071
        1
1002
}
1002
}
  0
ATTRIB
  5
EA
330
BF
100
AcDbEntity
  8
0
100
AcDbText
 10
54.562428711663
 20
-23.63564289590602
 30
0.0
 40
0.375
  1

  7
ArialNarrow
 72
     1
 11
54.562428711663
 21
-23.44814289590603
 31
0.0
100
AcDbAttribute
  2
#
 70
     0
 74
     2
1001
AcDbBlockRepETag
1070
     1
1071
        0
1005
0
1001
AcDbAttr
1070
     0
1070
     1
  0
ATTRIB
  5
EB
102
{ACAD_XDICTIONARY
360
EC
102
}
330
BF
100
AcDbEntity
  8
0
100
AcDbText
 10
54.88937624148571
 20
-23.41064289590602
 30
0.0
 40
0.1875
  1
17MM EZ-ID CV DRIP RING LAYOUT FOR TREES & SHRUBS
  7
ArialNarrow
 11
54.88937624148571
 21
-23.31689289590602
 31
0.0
100
AcDbAttribute
  2
NAME1
 70
     0
 74
     2
1001
AcDbBlockRepETag
1070
     1
1071
        1
1005
0
1001
AcDbAttr
1070
     0
1070
     1
  0
ATTRIB
  5
ED
330
BF
100
AcDbEntity
  8
0
100
AcDbText
 10
54.88937624148571
 20
-23.61689289590602
 30
0.0
 40
0.1125
  1
NOT TO SCALE
  7
ArialNarrow
 11
54.88937624148571
 21
-23.56064289590602
 31
0.0
100
AcDbAttribute
  2
NAME2
 70
     0
 74
     2
1001
AcDbBlockRepETag
1070
     1
1071
        2
1005
0
1001
AcDbAttr
1070
     0
1070
     1
  0
SEQEND
  5
EE
330
BF
100
AcDbEntity
  8
LP_TitleBlock
  0
INSERT
  5
EF
330
2
100
AcDbEntity
  8
LP_Detail
100
AcDbBlockReference
  2
i_tee
 10
57.3597982825002
 20
-16.71056033747023
 30
0.0
 41
-1.0
 50
180.0
1001
RJP
1000
© - 20150224
  0
INSERT
  5
F5
330
2
100
AcDbEntity
  8
LP_Detail
100
AcDbBlockReference
  2
i_cross
 10
57.3597982825002
 20
-17.18114063090671
 30
0.0
1001
RJP
1000
© - 20150224
  0
INSERT
  5
FB
330
2
100
AcDbEntity
  8
LP_Detail
100
AcDbBlockReference
  2
i_tee
 10
60.62774724796205
 20
-16.7464908092582
 30
0.0
 50
180.0
1001
RJP
1000
© - 20150224
  0
INSERT
  5
FC
330
2
100
AcDbEntity
  8
LP_Detail
100
AcDbBlockReference
  2
i_cross
 10
57.3597982825002
 20
-17.65172092434319
 30
0.0
1001
RJP
1000
© - 20150224
  0
MTEXT
  5
FD
102
{ACAD_XDICTIONARY
360
FE
102
}
330
2
100
AcDbEntity
  8
LP_Text
100
AcDbMText
 10
63.54452684510246
 20
-14.16625621192087
 30
0.0
 40
0.125
 41
6.042604024556617
 71
     1
 72
     5
  3
\pi-0.375,l0.375,t0.375;A.^ITO LANDSCAPE PRODUCTS VALVE BOX WITH DRIP REMOTE CONTROL ZONE KIT\P\pi0,l0,tz;\P\pi-0.375,l0.375,t0.375;B.^ISPECIMEN TREE DRIP RING\P\pi0,l0,tz;\P\pi-0.375,l0.375,t0.375;C.^IORNAMENTAL TREE DRIP RING\P\pi0,l0,tz;\P\pi-0.375,l
  1
0.375,t0.375;D.^ISHRUB DRIP RING\P\pi0,l0,tz;\P\pi-0.375,l0.375,t0.375;E.^ILANDSCAPE PRODUCTS 17MM EZ-ID CV COLOR CODED DRIPLINE\P\pi0,l0,tz;\P\pi-0.375,l0.375,t0.375;F.^I17MM INSERT FITTING (TYPICAL) 
  7
ArialNarrow
 73
     1
 44
0.75
1001
RJP
1000
© - 20150224
1001
ACAD
1000
ACAD_MTEXT_COLUMN_INFO_BEGIN
1070
    75
1070
     2
1070
    79
1070
     0
1070
    76
1070
     1
1070
    78
1070
     0
1070
    48
1040
6.042604024556617
1070
    49
1040
0.625
1070
    50
1070
     1
1040
0.0
1000
ACAD_MTEXT_COLUMN_INFO_END
  0
LWPOLYLINE
  5
100
330
2
100
AcDbEntity
  8
LP_Detail
100
AcDbPolyline
 90
        2
 70
   129
 43
0.0125
 10
58.77153916280965
 20
-16.23998004403375
 42
1.0
 10
55.94805740219076
 20
-16.23998004403375
 42
1.0
1001
RJP
1000
© - 20150224
  0
LWPOLYLINE
  5
101
330
2
100
AcDbEntity
  8
LP_Detail
100
AcDbPolyline
 90
        2
 70
   129
 43
0.0125
 10
57.83037857593669
 20
-16.23998004403375
 42
1.0
 10
56.88921798906372
 20
-16.23998004403375
 42
1.0
1001
RJP
1000
© - 20150224
  0
LWPOLYLINE
  5
102
330
2
100
AcDbEntity
  8
LP_Detail
100
AcDbPolyline
 90
        2
 70
   129
 43
0.0125
 10
58.30095886937317
 20
-16.23998004403375
 42
1.0
 10
56.41863769562725
 20
-16.23998004403375
 42
1.0
1001
RJP
1000
© - 20150224
  0
LWPOLYLINE
  5
103
330
2
100
AcDbEntity
  8
LP_Detail
100
AcDbPolyline
 90
        2
 70
     1
 43
0.0
 10
58.82153916280966
 20
-16.23998004403375
 42
1.0
 10
55.89805740219076
 20
-16.23998004403375
 42
1.0
1001
RJP
1000
© - 20150224
  0
LWPOLYLINE
  5
104
330
2
100
AcDbEntity
  8
LP_Detail
100
AcDbPolyline
 90
        2
 70
     1
 43
0.0
 10
58.72153916280965
 20
-16.23998004403375
 42
1.0
 10
55.99805740219076
 20
-16.23998004403375
 42
1.0
1001
RJP
1000
© - 20150224
  0
LWPOLYLINE
  5
105
330
2
100
AcDbEntity
  8
LP_Detail
100
AcDbPolyline
 90
        2
 70
     1
 43
0.0
 10
58.25095886937317
 20
-16.23998004403375
 42
1.0
 10
56.46863769562724
 20
-16.23998004403375
 42
1.0
1001
RJP
1000
© - 20150224
  0
LWPOLYLINE
  5
106
330
2
100
AcDbEntity
  8
LP_Detail
100
AcDbPolyline
 90
        2
 70
     1
 43
0.0
 10
58.35095886937317
 20
-16.23998004403375
 42
1.0
 10
56.36863769562725
 20
-16.23998004403375
 42
1.0
1001
RJP
1000
© - 20150224
  0
LWPOLYLINE
  5
107
330
2
100
AcDbEntity
  8
LP_Detail
100
AcDbPolyline
 90
        2
 70
     1
 43
0.0
 10
57.7803785759367
 20
-16.23998004403375
 42
1.0
 10
56.93921798906372
 20
-16.23998004403375
 42
1.0
1001
RJP
1000
© - 20150224
  0
LWPOLYLINE
  5
108
330
2
100
AcDbEntity
  8
LP_Detail
100
AcDbPolyline
 90
        2
 70
     1
 43
0.0
 10
57.88037857593669
 20
-16.23998004403375
 42
1.0
 10
56.83921798906372
 20
-16.23998004403375
 42
1.0
1001
RJP
1000
© - 20150224
  0
LWPOLYLINE
  5
109
330
2
100
AcDbEntity
  8
LP_Detail
100
AcDbPolyline
 90
        2
 70
     0
 43
0.0
 10
57.30979828250021
 20
-16.75815360753773
 10
57.30979828250021
 20
-17.129736860021
1001
RJP
1000
© - 20150224
  0
LWPOLYLINE
  5
10A
330
2
100
AcDbEntity
  8
LP_Detail
100
AcDbPolyline
 90
        2
 70
     0
 43
0.0
 10
57.30979828250021
 20
-17.22987867973861
 10
57.30979828250021
 20
-18.14704977089107
1001
RJP
1000
© - 20150224
  0
LWPOLYLINE
  5
10B
330
2
100
AcDbEntity
  8
LP_Detail
100
AcDbPolyline
 90
        2
 70
     0
 43
0.0
 10
57.4097982825002
 20
-16.75815360753773
 10
57.4097982825002
 20
-17.129736860021
1001
RJP
1000
© - 20150224
  0
LWPOLYLINE
  5
10C
330
2
100
AcDbEntity
  8
LP_Detail
100
AcDbPolyline
 90
        2
 70
     0
 43
0.0
 10
57.4097982825002
 20
-17.22987867973861
 10
57.4097982825002
 20
-18.14704977089107
1001
RJP
1000
© - 20150224
  0
LWPOLYLINE
  5
10D
330
2
100
AcDbEntity
  8
LP_Detail
100
AcDbPolyline
 90
        2
 70
   129
 43
0.0125
 10
60.92774724796204
 20
-16.4464908092582
 42
1.0
 10
60.32774724796205
 20
-16.4464908092582
 42
1.0
1001
RJP
1000
© - 20150224
  0
LWPOLYLINE
  5
10E
330
2
100
AcDbEntity
  8
LP_Detail
100
AcDbPolyline
 90
        2
 70
     1
 43
0.0
 10
60.87774724796204
 20
-16.4464908092582
 42
1.0
 10
60.37774724796205
 20
-16.4464908092582
 42
1.0
1001
RJP
1000
© - 20150224
  0
LWPOLYLINE
  5
10F
330
2
100
AcDbEntity
  8
LP_Detail
100
AcDbPolyline
 90
        2
 70
     1
 43
0.0
 10
60.97774724796205
 20
-16.4464908092582
 42
1.0
 10
60.27774724796205
 20
-16.4464908092582
 42
1.0
1001
RJP
1000
© - 20150224
  0
LWPOLYLINE
  5
110
330
2
100
AcDbEntity
  8
LP_Detail
100
AcDbPolyline
 90
        2
 70
     0
 43
0.0
 10
60.57774724796205
 20
-16.79290097077197
 10
60.57774724796205
 20
-17.29149748795131
1001
RJP
1000
© - 20150224
  0
LWPOLYLINE
  5
111
330
2
100
AcDbEntity
  8
LP_Detail
100
AcDbPolyline
 90
        2
 70
     0
 43
0.0
 10
60.67774724796205
 20
-16.79290097077197
 10
60.67774724796205
 20
-17.29149748795131
1001
RJP
1000
© - 20150224
  0
MULTILEADER
  5
112
102
{ACAD_XDICTIONARY
360
1D0
102
}
330
2
100
AcDbEntity
  8
LP_Mleader
 92
     1972
310
B4070000420000000C00000016000000000000C00C00000033000000000000000C00000013000000993A00000C00000016000000000000C20C00000014000000010000006C0000000700000004000000BEB919F73B7B4E402170A275848A31C000000000000000000F270D6B80974E402170A275848A31C000000000000000
310
000F270D6B80974E402170A27584CA31C00000000000000000BEB919F73B7B4E402170A27584CA31C000000000000000000C00000016000000000000C00C0000001400000001000000A40000000B000000BEB919F73B834E402170A27584BA31C0000000000000000000000000000000000000000000000000000000000000
310
F03F000000000000F03F00000000000000000000000000000000410074000100000001000000000000000000C03F000000000000F03F0000000000000000000000000000F03F0000000000000000000000000000000000000000417269616C204E6172726F7700005C00000031000C00000033000000000000000C00000010
310
000000040000000C00000016000000000000C00C00000012000000FF7F00000C0000001300000001000000880000001D0000000067338E16E1B4BF203D806FF83FB8BF0000000000000000541396055A504E40203D806FF83FB83F0067338E16E1B4BF0000000000000000F59D51949F4A31C0000000000000000000000000
310
00000000000000000000C03F0000000000000000000000000000000000000000000000000000000000000000000000000000F03F0C00000016000000010000C30C00000017000000FDFFFFFF0C0000001400000002000000100000001900000000000000000000004C000000210000003D0000004509A9999999999993F409
310
0200000000000000000000000000000000C040000000003C2FF402F6A7952C4D63F3657E861F3A4F02FCD95FA187CE93C0BF0064000C000000120000000000000064000000040000000C5F8D3FE66BC63FBDBED8444D9B004000000000000000006D1DC84269AA004000000000000000000000000000000000000000000000
310
F03FE2ABF1C77CCDF2BFAAF156EB8585FBBF0000000000000000B054C1C8507CE03F000000000C00000016000000010000C30C00000017000000FDFFFFFF0C00000014000000020000001000000019000000000000000000000046000000210000003700000008005024080000000000000000000000000000000300000000
310
0000E0BF226A666666666724FC9A9999999999993F26A666666666664FFF0034000C0000001200000000000000540000002000000002000000000000000000000000000000000000000000000000000000000000000000E0BF0000000000000000000000000000000000000000000000000000000000000000000000000000
310
F03F0C00000016000000010000C30C00000017000000FDFFFFFF0C0000001400000002000000100000001900000000000000000000004C000000210000003D0000004509A9999999999993F4090200000000000000000000000000000000C040000000003C2FF402F6A7952C4D6BF3657E861F3A4F00FCD95FA187CE93C03F
310
0000000C000000120000000000000064000000040000000C5F8D3FE66BC63FBDBED8444D9B00C000000000000000006D1DC84269AA004000000000000000000000000000000000000000000000F03F0C5F8D3FE66BC6BFBDBED8444D9B00400000000000000000B854C1C8507CE03F000000000C00000016000000010000C3
310
0C00000017000000FDFFFFFF0C0000001400000002000000100000001900000000000000000000004E000000210000003F0000000800502408000000000003C2FC00000000020244F3000000000000E0BFC000000000000000226A666666666724FC9A9999999999993F26A666666666664FFF0000000C0000001200000000
310
000000540000002000000002000000000000000000F0BF000000000080913C0000000000000000000000000000E0BF0000000000000000000000000000000000000000000000000000000000000000000000000000F03F080000001F0000000C00000016000000000000C00C00000012000000FF7F00000C00000033000000
310
000000000C00000013000000891300003C0000000600000002000000072DDD90CA5A4E40321EC18CDF6231C000000000000000002520805DA2794E402170A27584AA31C000000000000000000C00000013000000112700003C00000006000000020000002520805DA2794E402170A27584AA31C000000000000000008B86E6
310
C308804E402170A27584AA31C000000000000000000C00000016000000000000C00C00000012000000FF7F00000C00000017000000000000000C000000130000009A3A00000C00000016000000000000C00C00000012000000FF7F00000C00000017000000FFFFFFFF0C00000033000000000000000C000000330000000000
310
00000C00000010000000040000000C00000016000000000000C08400000006000000050000008B86E6C308804E40BB093C0F1E9431C00000000000000000425A409EB3924E40BB093C0F1E9431C00000000000000000425A409EB3924E4088D608DCEAC031C000000000000000008B86E6C308804E4088D608DCEAC031C000
310
000000000000008B86E6C308804E40BB093C0F1E9431C000000000000000000C0000000E000000000100000C00000017000000FFFFFFFF0C0000003300000000000000
100
AcDbMLeader
300
CONTEXT_DATA{
 40
1.0
 10
61.00026749378329
 20
-17.66608367172023
 30
0.0
 41
0.125
140
0.125
145
0.025
174
     1
175
     1
176
     0
177
     0
290
     1
304
A
 11
0.0
 21
0.0
 31
1.0
340
B5
 12
61.02526749378329
 22
-17.60358367172023
 32
0.0
 13
1.0
 23
0.0
 33
0.0
 42
0.0
 43
0.0
 44
0.0
 45
1.0
170
     1
 90
-1073741824
171
     1
172
     5
 91
-1027028792
141
1.5
 92
        0
291
     1
292
     1
173
     0
293
     0
142
0.0
143
0.0
294
     0
295
     0
296
     0
110
60.91215563307986
120
-18.58594191771195
130
0.0
111
1.0
121
0.0
131
0.0
112
0.0
122
1.0
132
0.0
297
     0
302
LEADER{
290
     1
291
     1
 10
60.95026749378329
 20
-17.66608367172023
 30
0.0
 11
1.0
 21
0.0
 31
0.0
 90
        0
 40
0.05
304
LEADER_LINE{
 10
60.62774724796205
 20
-17.29149748795131
 30
0.0
 91
        0
305
}
303
}
301
}
340
114
 90
   410784
170
     1
 91
-1073741824
171
    -2
290
     1
291
     1
 41
0.05
342
115
 42
0.125
172
     2
343
B5
173
     1
 95
        1
174
     0
175
     0
 92
-1073741824
292
     1
 93
-1073741824
 10
1.0
 20
1.0
 30
1.0
 43
0.0
176
     0
293
     0
294
     0
178
     0
179
     1
 45
1.0
1001
RJP
1000
© - 20150224
1001
ACAD_MLEADERVER
1070
     2
  0
LWPOLYLINE
  5
11E
330
2
100
AcDbEntity
  8
LP_Detail
100
AcDbPolyline
 90
        2
 70
   128
 43
0.0125
 10
57.3597982825002
 20
-16.71056033747023
 10
57.3597982825002
 20
-17.65172092434319
1001
RJP
1000
© - 20150224
  0
INSERT
  5
11F
330
2
100
AcDbEntity
  8
LP_Detail
 62
     8
100
AcDbBlockReference
  2
Juniper
 10
58.76732165949334
 20
-20.26579703624499
 30
0.0
 41
0.14
 42
0.14
 43
0.14
1001
RJP
1000
© - 20150224
  0
LWPOLYLINE
  5
13D
330
2
100
AcDbEntity
  8
LP_Detail
100
AcDbPolyline
 90
        4
 70
     0
 43
0.0
 10
57.4097982825002
 20
-18.14704977089107
 42
-0.5
 10
57.3597982825002
 20
-18.14704977089107
 42
0.5
 10
57.30979828250021
 20
-18.14704977089107
 42
0.5
 10
57.3597982825002
 20
-18.14704977089107
1001
RJP
1000
© - 20150224
  0
LWPOLYLINE
  5
13E
330
2
100
AcDbEntity
  8
LP_Detail
100
AcDbPolyline
 90
        4
 70
     0
 43
0.0
 10
60.67774724796205
 20
-17.29149748795131
 42
-0.5
 10
60.62774724796205
 20
-17.29149748795131
 42
0.5
 10
60.57774724796205
 20
-17.29149748795131
 42
0.5
 10
60.62774724796205
 20
-17.29149748795131
1001
RJP
1000
© - 20150224
  0
INSERT
  5
13F
330
2
100
AcDbEntity
  8
LP_Detail
100
AcDbBlockReference
  2
i_tee
 10
58.76732165949334
 20
-19.7952167428085
 30
0.0
1001
RJP
1000
© - 20150224
  0
INSERT
  5
140
330
2
100
AcDbEntity
  8
LP_Detail
100
AcDbBlockReference
  2
i_cross
 10
58.76732165949334
 20
-19.32463644937202
 30
0.0
 41
-1.0
 50
180.0
1001
RJP
1000
© - 20150224
  0
LWPOLYLINE
  5
141
330
2
100
AcDbEntity
  8
LP_Detail
100
AcDbPolyline
 90
        2
 70
   129
 43
0.0125
 10
59.23790195292983
 20
-20.26579703624499
 42
-1.0
 10
58.29674136605686
 20
-20.26579703624499
 42
-1.0
1001
RJP
1000
© - 20150224
  0
LWPOLYLINE
  5
142
330
2
100
AcDbEntity
  8
LP_Detail
100
AcDbPolyline
 90
        2
 70
   129
 43
0.0125
 10
59.70848224636631
 20
-20.26579703624499
 42
-1.0
 10
57.82616107262039
 20
-20.26579703624499
 42
-1.0
1001
RJP
1000
© - 20150224
  0
LWPOLYLINE
  5
143
330
2
100
AcDbEntity
  8
LP_Detail
100
AcDbPolyline
 90
        2
 70
     1
 43
0.0
 10
59.65848224636631
 20
-20.26579703624499
 42
-1.0
 10
57.87616107262039
 20
-20.26579703624499
 42
-1.0
1001
RJP
1000
© - 20150224
  0
LWPOLYLINE
  5
144
330
2
100
AcDbEntity
  8
LP_Detail
100
AcDbPolyline
 90
        2
 70
     1
 43
0.0
 10
59.75848224636631
 20
-20.26579703624499
 42
-1.0
 10
57.77616107262039
 20
-20.26579703624499
 42
-1.0
1001
RJP
1000
© - 20150224
  0
LWPOLYLINE
  5
145
330
2
100
AcDbEntity
  8
LP_Detail
100
AcDbPolyline
 90
        2
 70
     1
 43
0.0
 10
59.18790195292984
 20
-20.26579703624499
 42
-1.0
 10
58.34674136605686
 20
-20.26579703624499
 42
-1.0
1001
RJP
1000
© - 20150224
  0
LWPOLYLINE
  5
146
102
{ACAD_REACTORS
330
160
102
}
330
2
100
AcDbEntity
  8
LP_Detail
100
AcDbPolyline
 90
        2
 70
     1
 43
0.0
 10
59.28790195292982
 20
-20.26579703624499
 42
-1.0
 10
58.24674136605686
 20
-20.26579703624499
 42
-1.0
1001
RJP
1000
© - 20150224
  0
LWPOLYLINE
  5
147
330
2
100
AcDbEntity
  8
LP_Detail
100
AcDbPolyline
 90
        2
 70
     0
 43
0.0
 10
58.71732165949335
 20
-19.747623472741
 10
58.71732165949335
 20
-19.37604022025773
1001
RJP
1000
© - 20150224
  0
LWPOLYLINE
  5
148
330
2
100
AcDbEntity
  8
LP_Detail
100
AcDbPolyline
 90
        2
 70
     0
 43
0.0
 10
58.71732165949335
 20
-19.27589840054012
 10
58.71732165949335
 20
-18.69196226680142
1001
RJP
1000
© - 20150224
  0
LWPOLYLINE
  5
149
330
2
100
AcDbEntity
  8
LP_Detail
100
AcDbPolyline
 90
        2
 70
     0
 43
0.0
 10
58.81732165949334
 20
-19.747623472741
 10
58.81732165949334
 20
-19.37604022025773
1001
RJP
1000
© - 20150224
  0
LWPOLYLINE
  5
14A
330
2
100
AcDbEntity
  8
LP_Detail
100
AcDbPolyline
 90
        2
 70
     0
 43
0.0
 10
58.81732165949334
 20
-19.27589840054012
 10
58.81732165949334
 20
-18.69196226680142
1001
RJP
1000
© - 20150224
  0
LWPOLYLINE
  5
14B
330
2
100
AcDbEntity
  8
LP_Detail
100
AcDbPolyline
 90
        2
 70
   128
 43
0.0125
 10
58.76732165949334
 20
-19.7952167428085
 10
58.76732165949334
 20
-19.24963644937203
1001
RJP
1000
© - 20150224
  0
LWPOLYLINE
  5
14C
330
2
100
AcDbEntity
  8
LP_Detail
100
AcDbPolyline
 90
        4
 70
     0
 43
0.0
 10
58.81732165949334
 20
-18.69196226680142
 42
0.5
 10
58.76732165949334
 20
-18.69196226680142
 42
-0.5
 10
58.71732165949335
 20
-18.69196226680142
 42
-0.5
 10
58.76732165949334
 20
-18.69196226680142
1001
RJP
1000
© - 20150224
  0
MTEXT
  5
14D
102
{ACAD_XDICTIONARY
360
14E
102
}
330
2
100
AcDbEntity
  8
LP_Text
100
AcDbMText
 10
57.3597982825002
 20
-14.1668249171667
 30
0.0
 40
0.125
 41
2.038340723055934
 71
     5
 72
     5
  1
{\LSPECIMEN TREE DRIP RINGS}
  7
ArialNarrow
 73
     1
 44
0.75
1001
RJP
1000
© - 20150224
1001
ACAD
1000
ACAD_MTEXT_COLUMN_INFO_BEGIN
1070
    75
1070
     2
1070
    79
1070
     0
1070
    76
1070
     1
1070
    78
1070
     0
1070
    48
1040
2.038340723055934
1070
    49
1040
0.625
1070
    50
1070
     1
1040
0.0
1000
ACAD_MTEXT_COLUMN_INFO_END
  0
MTEXT
  5
14F
102
{ACAD_XDICTIONARY
360
150
102
}
330
2
100
AcDbEntity
  8
LP_Text
100
AcDbMText
 10
60.62774724796205
 20
-15.88358111305712
 30
0.0
 40
0.125
 41
1.273163369713506
 71
     5
 72
     5
  1
{\LSHRUB DRIP RING}
  7
ArialNarrow
 73
     1
 44
0.75
1001
RJP
1000
© - 20150224
1001
ACAD
1000
ACAD_MTEXT_COLUMN_INFO_BEGIN
1070
    75
1070
     2
1070
    79
1070
     0
1070
    76
1070
     1
1070
    78
1070
     0
1070
    48
1040
1.273163369713506
1070
    49
1040
0.625
1070
    50
1070
     1
1040
0.0
1000
ACAD_MTEXT_COLUMN_INFO_END
  0
MTEXT
  5
151
102
{ACAD_XDICTIONARY
360
152
102
}
330
2
100
AcDbEntity
  8
LP_Text
100
AcDbMText
 10
58.76732165949334
 20
-21.73485401537573
 30
0.0
 40
0.125
 41
2.284930081855388
 71
     5
 72
     5
  1
{\LORNAMENTAL TREE DRIP RINGS}
  7
ArialNarrow
 73
     1
 44
0.75
1001
RJP
1000
© - 20150224
1001
ACAD
1000
ACAD_MTEXT_COLUMN_INFO_BEGIN
1070
    75
1070
     2
1070
    79
1070
     0
1070
    76
1070
     1
1070
    78
1070
     0
1070
    48
1040
2.284930081855388
1070
    49
1040
0.625
1070
    50
1070
     1
1040
0.0
1000
ACAD_MTEXT_COLUMN_INFO_END
  0
MULTILEADER
  5
153
102
{ACAD_XDICTIONARY
360
1D6
102
}
330
2
100
AcDbEntity
  8
LP_Mleader
 92
     1972
310
B4070000420000000C00000016000000000000C00C00000033000000000000000C00000013000000993A00000C00000016000000000000C20C00000014000000010000006C000000070000000400000074F4D97194DE4C40CE23E8BE516332C00000000000000000C561CDE5D8FA4C40CE23E8BE516332C000000000000000
310
00C561CDE5D8FA4C40CE23E8BE51A332C0000000000000000074F4D97194DE4C40CE23E8BE51A332C000000000000000000C00000016000000000000C00C0000001400000001000000A40000000B00000074F4D97194E64C40CE23E8BE519332C0000000000000000000000000000000000000000000000000000000000000
310
F03F000000000000F03F00000000000000000000000000000000410020000100000001000000000000000000C03F000000000000F03F0000000000000000000000000000F03F0000000000000000000000000000000000000000417269616C204E6172726F7700004E00000000000C00000033000000000000000C00000010
310
000000040000000C00000016000000000000C00C00000012000000FF7F00000C0000001300000001000000880000001D0000000067338E16E1B4BF203D806FF83FB8BF00000000000000000A4E5680B2B34C40203D806FF83FB83F0067338E16E1B4BF0000000000000000A25197DD6C2332C0000000000000000000000000
310
00000000000000000000C03F0000000000000000000000000000000000000000000000000000000000000000000000000000F03F0C00000016000000010000C30C00000017000000FDFFFFFF0C0000001400000002000000100000001900000000000000000000004C000000210000003D0000004509A9999999999993F409
310
0200000000000000000000000000000000C040000000003C2FF402F6A7952C4D63F3657E861F3A4F02FCD95FA187CE93C0BF0000000C000000120000000000000064000000040000000C5F8D3FE66BC63FBDBED8444D9B004000000000000000006D1DC84269AA004000000000000000000000000000000000000000000000
310
F03FE2ABF1C77CCDF2BFAAF156EB8585FBBF0000000000000000B054C1C8507CE03F000000000C00000016000000010000C30C00000017000000FDFFFFFF0C00000014000000020000001000000019000000000000000000000046000000210000003700000008005024080000000000000000000000000000000300000000
310
0000E0BF226A666666666724FC9A9999999999993F26A666666666664FFF0034000C0000001200000000000000540000002000000002000000000000000000000000000000000000000000000000000000000000000000E0BF0000000000000000000000000000000000000000000000000000000000000000000000000000
310
F03F0C00000016000000010000C30C00000017000000FDFFFFFF0C0000001400000002000000100000001900000000000000000000004C000000210000003D0000004509A9999999999993F4090200000000000000000000000000000000C040000000003C2FF402F6A7952C4D6BF3657E861F3A4F00FCD95FA187CE93C03F
310
0000000C000000120000000000000064000000040000000C5F8D3FE66BC63FBDBED8444D9B00C000000000000000006D1DC84269AA004000000000000000000000000000000000000000000000F03F0C5F8D3FE66BC6BFBDBED8444D9B00400000000000000000B854C1C8507CE03F000000000C00000016000000010000C3
310
0C00000017000000FDFFFFFF0C0000001400000002000000100000001900000000000000000000004E000000210000003F0000000800502408000000000003C2FC00000000020244F3000000000000E0BFC000000000000000226A666666666724FC9A9999999999993F26A666666666664FFF0078000C0000001200000000
310
000000540000002000000002000000000000000000F0BF000000000080913C0000000000000000000000000000E0BF0000000000000000000000000000000000000000000000000000000000000000000000000000F03F080000001F0000000C00000016000000000000C00C00000012000000FF7F00000C00000033000000
310
000000000C00000013000000891300003C0000000600000002000000BD679D0B23BE4C40DFD106D6AC3B32C00000000000000000DB5A40D8FADC4C40CE23E8BE518332C000000000000000000C00000013000000112700003C0000000600000002000000DB5A40D8FADC4C40CE23E8BE518332C0000000000000000041C1A6
310
3E61E34C40CE23E8BE518332C000000000000000000C00000016000000000000C00C00000012000000FF7F00000C00000017000000000000000C000000130000009A3A00000C00000016000000000000C00C00000012000000FF7F00000C00000017000000FFFFFFFF0C00000033000000000000000C000000330000000000
310
00000C00000010000000040000000C00000016000000000000C084000000060000000500000041C1A63E61E34C4068BD8158EB6C32C00000000000000000F89400190CF64C4068BD8158EB6C32C00000000000000000F89400190CF64C40358A4E25B89932C0000000000000000041C1A63E61E34C40358A4E25B89932C000
310
0000000000000041C1A63E61E34C4068BD8158EB6C32C000000000000000000C0000000E000000000100000C00000017000000FFFFFFFF0C0000003300000000000000
100
AcDbMLeader
300
CONTEXT_DATA{
 40
1.0
 10
57.77640517370538
 20
-18.51296609084584
 30
0.0
 41
0.125
140
0.125
145
0.025
174
     1
175
     1
176
     0
177
     0
290
     1
304
A
 11
0.0
 21
0.0
 31
1.0
340
B5
 12
57.80140517370537
 22
-18.45046609084584
 32
0.0
 13
1.0
 23
0.0
 33
0.0
 42
0.0
 43
0.0
 44
0.0
 45
1.0
170
     1
 90
-1073741824
171
     1
172
     5
 91
-1027028792
141
1.5
 92
        0
291
     1
292
     1
173
     0
293
     0
142
0.0
143
0.0
294
     0
295
     0
296
     0
110
57.68829331300196
120
-19.43282433683756
130
0.0
111
1.0
121
0.0
131
0.0
112
0.0
122
1.0
132
0.0
297
     0
302
LEADER{
290
     1
291
     1
 10
57.72640517370538
 20
-18.51296609084584
 30
0.0
 11
1.0
 21
0.0
 31
0.0
 90
        0
 40
0.05
304
LEADER_LINE{
 10
57.40388492788413
 20
-18.13837990707692
 30
0.0
 91
        0
305
}
303
}
301
}
340
114
 90
   410784
170
     1
 91
-1073741824
171
    -2
290
     1
291
     1
 41
0.05
342
115
 42
0.125
172
     2
343
B5
173
     1
 95
        1
174
     0
175
     0
 92
-1073741824
292
     1
 93
-1073741824
 10
1.0
 20
1.0
 30
1.0
 43
0.0
176
     0
293
     0
294
     0
178
     0
179
     1
 45
1.0
1001
RJP
1000
© - 20150224
1001
ACAD_MLEADERVER
1070
     2
  0
MULTILEADER
  5
154
102
{ACAD_XDICTIONARY
360
1D8
102
}
330
2
100
AcDbEntity
  8
LP_Mleader
 92
     1972
310
B4070000420000000C00000016000000000000C00C00000033000000000000000C00000013000000993A00000C00000016000000000000C20C00000014000000010000006C0000000700000004000000B439B62BBE924D40549DEB5E072F32C0000000000000000005A7A99F02AF4D40549DEB5E072F32C000000000000000
310
0005A7A99F02AF4D40549DEB5E076F32C00000000000000000B439B62BBE924D40549DEB5E076F32C000000000000000000C00000016000000000000C00C0000001400000001000000A40000000B000000B439B62BBE9A4D40549DEB5E075F32C0000000000000000000000000000000000000000000000000000000000000
310
F03F000000000000F03F0000000000000000000000000000000041004E000100000001000000000000000000C03F000000000000F03F0000000000000000000000000000F03F0000000000000000000000000000000000000000417269616C204E6172726F7700000000000078000C00000033000000000000000C00000010
310
000000040000000C00000016000000000000C00C00000012000000FF7F00000C0000001300000001000000880000001D0000000067338E16E1B4BF1E3D806FF83FB83F00000000000000004A93323ADC674D401E3D806FF83FB8BF0067338E16E1B4BF0000000000000000806F3C40ECAE32C0000000000000000000000000
310
00000000000000000000C03F0000000000000000000000000000000000000000000000000000000000000000000000000000F03F0C00000016000000010000C30C00000017000000FDFFFFFF0C0000001400000002000000100000001900000000000000000000004C000000210000003D0000004509A9999999999993F409
310
0200000000000000000000000000000000C040000000003C2FF402F6A7952C4D63F3657E861F3A4F02FCD95FA187CE93C0BF0000000C000000120000000000000064000000040000000C5F8D3FE66BC63FBDBED8444D9B004000000000000000006D1DC84269AA004000000000000000000000000000000000000000000000
310
F03FE2ABF1C77CCDF2BFAAF156EB8585FBBF0000000000000000B054C1C8507CE03F000000000C00000016000000010000C30C00000017000000FDFFFFFF0C00000014000000020000001000000019000000000000000000000046000000210000003700000008005024080000000000000000000000000000000300000000
310
0000E0BF226A666666666724FC9A9999999999993F26A666666666664FFF0000000C0000001200000000000000540000002000000002000000000000000000000000000000000000000000000000000000000000000000E0BF0000000000000000000000000000000000000000000000000000000000000000000000000000
310
F03F0C00000016000000010000C30C00000017000000FDFFFFFF0C0000001400000002000000100000001900000000000000000000004C000000210000003D0000004509A9999999999993F4090200000000000000000000000000000000C040000000003C2FF402F6A7952C4D6BF3657E861F3A4F00FCD95FA187CE93C03F
310
006D000C000000120000000000000064000000040000000C5F8D3FE66BC63FBDBED8444D9B00C000000000000000006D1DC84269AA004000000000000000000000000000000000000000000000F03F0C5F8D3FE66BC6BFBDBED8444D9B00400000000000000000B854C1C8507CE03F000000000C00000016000000010000C3
310
0C00000017000000FDFFFFFF0C0000001400000002000000100000001900000000000000000000004E000000210000003F0000000800502408000000000003C2FC00000000020244F3000000000000E0BFC000000000000000226A666666666724FC9A9999999999993F26A666666666664FFF0078000C0000001200000000
310
000000540000002000000002000000000000000000F0BF000000000080913C0000000000000000000000000000E0BF0000000000000000000000000000000000000000000000000000000000000000000000000000F03F080000001F0000000C00000016000000000000C00C00000012000000FF7F00000C00000033000000
310
000000000C00000013000000891300003C0000000600000002000000FDAC79C54C724D4043EFCC47AC9632C000000000000000001BA01C9224914D40549DEB5E074F32C000000000000000000C00000013000000112700003C00000006000000020000001BA01C9224914D40549DEB5E074F32C00000000000000000810683
310
F88A974D40549DEB5E074F32C000000000000000000C00000016000000000000C00C00000012000000FF7F00000C00000017000000000000000C000000130000009A3A00000C00000016000000000000C00C00000012000000FF7F00000C00000017000000FFFFFFFF0C00000033000000000000000C000000330000000000
310
00000C00000010000000040000000C00000016000000000000C0840000000600000005000000810683F88A974D40EE3685F8A03832C0000000000000000038DADCD235AA4D40EE3685F8A03832C0000000000000000038DADCD235AA4D40BB0352C56D6532C00000000000000000810683F88A974D40BB0352C56D6532C000
310
00000000000000810683F88A974D40EE3685F8A03832C000000000000000000C0000000E000000000100000C00000017000000FFFFFFFF0C0000003300000000000000
100
AcDbMLeader
300
CONTEXT_DATA{
 40
1.0
 10
59.18392855069852
 20
-18.30870621921834
 30
0.0
 41
0.125
140
0.125
145
0.025
174
     1
175
     1
176
     0
177
     0
290
     1
304
A
 11
0.0
 21
0.0
 31
1.0
340
B5
 12
59.20892855069851
 22
-18.24620621921834
 32
0.0
 13
1.0
 23
0.0
 33
0.0
 42
0.0
 43
0.0
 44
0.0
 45
1.0
170
     1
 90
-1073741824
171
     1
172
     5
 91
-1027028792
141
1.5
 92
        0
291
     1
292
     1
173
     0
293
     0
142
0.0
143
0.0
294
     0
295
     0
296
     0
110
59.0958166899951
120
-17.38884797322661
130
0.0
111
1.0
121
0.0
131
0.0
112
0.0
122
1.0
132
0.0
297
     0
302
LEADER{
290
     1
291
     1
 10
59.13392855069852
 20
-18.30870621921834
 30
0.0
 11
1.0
 21
0.0
 31
0.0
 90
        0
 40
0.05
304
LEADER_LINE{
 10
58.81140830487727
 20
-18.68329240298726
 30
0.0
 91
        0
305
}
303
}
301
}
340
114
 90
   410784
170
     1
 91
-1073741824
171
    -2
290
     1
291
     1
 41
0.05
342
115
 42
0.125
172
     2
343
B5
173
     1
 95
        1
174
     0
175
     0
 92
-1073741824
292
     1
 93
-1073741824
 10
1.0
 20
1.0
 30
1.0
 43
0.0
176
     0
293
     0
294
     0
178
     0
179
     1
 45
1.0
1001
RJP
1000
© - 20150224
1001
ACAD_MLEADERVER
1070
     2
  0
MULTILEADER
  5
155
102
{ACAD_XDICTIONARY
360
1DA
102
}
330
2
100
AcDbEntity
  8
LP_Mleader
 92
     1972
310
B4070000420000000C00000016000000000000C00C00000033000000000000000C00000013000000993A00000C00000016000000000000C20C00000014000000010000006C00000007000000040000004415DA35AD424D40609BD2169E022DC0000000000000000084FDED28965C4D40609BD2169E022DC000000000000000
310
0084FDED28965C4D40609BD2169E822DC000000000000000004415DA35AD424D40609BD2169E822DC000000000000000000C00000016000000000000C00C0000001400000001000000A40000000B00000019D733C152494D40609BD2169E622DC0000000000000000000000000000000000000000000000000000000000000
310
F03F000000000000F03F000000000000000000000000000000004200E57B0100000001000000000000000000C03F000000000000F03F0000000000000000000000000000F03F0000000000000000000000000000000000000000417269616C204E6172726F77000000000093E57B0C00000033000000000000000C00000010
310
000000040000000C00000016000000000000C00C00000012000000FF7F00000C0000001300000001000000880000001D00000030AB46E2F495B2BF12F0CDF3A20CBA3F0000000000000000693FC0DE0DAE4C4012F0CDF3A20CBABF30AB46E2F495B2BF00000000000000004DD108556F3D30C0000000000000000000000000
310
00000000000000000000C03F0000000000000000000000000000000000000000000000000000000000000000000000000000F03F0C00000016000000010000C30C00000017000000FDFFFFFF0C0000001400000002000000100000001900000000000000000000004C000000210000003D0000004509A9999999999993F409
310
0200000000000000000000000000000000C040000000003C2FF402F6A7952C4D63F3657E861F3A4F02FCD95FA187CE93C0BF0000000C000000120000000000000064000000040000000C5F8D3FE66BC63FBDBED8444D9B004000000000000000006D1DC84269AA004000000000000000000000000000000000000000000000
310
F03FE2ABF1C77CCDF2BFAAF156EB8585FBBF0000000000000000B054C1C8507CE03F000000000C00000016000000010000C30C00000017000000FDFFFFFF0C00000014000000020000001000000019000000000000000000000046000000210000003700000008005024080000000000000000000000000000000300000000
310
0000E0BF226A666666666724FC9A9999999999993F26A666666666664FFF0000000C0000001200000000000000540000002000000002000000000000000000000000000000000000000000000000000000000000000000E0BF0000000000000000000000000000000000000000000000000000000000000000000000000000
310
F03F0C00000016000000010000C30C00000017000000FDFFFFFF0C0000001400000002000000100000001900000000000000000000004C000000210000003D0000004509A9999999999993F4090200000000000000000000000000000000C040000000003C2FF402F6A7952C4D6BF3657E861F3A4F00FCD95FA187CE93C03F
310
4FFF000C000000120000000000000064000000040000000C5F8D3FE66BC63FBDBED8444D9B00C000000000000000006D1DC84269AA004000000000000000000000000000000000000000000000F03F0C5F8D3FE66BC6BFBDBED8444D9B00400000000000000000B854C1C8507CE03F000000000C00000016000000010000C3
310
0C00000017000000FDFFFFFF0C0000001400000002000000100000001900000000000000000000004E000000210000003F0000000800502408000000000003C2FC00000000020244F3000000000000E0BFC000000000000000226A666666666724FC9A9999999999993F26A666666666664FFF0000000C0000001200000000
310
000000540000002000000002000000000000000000F0BF000000000080913C0000000000000000000000000000E0BF0000000000000000000000000000000000000000000000000000000000000000000000000000F03F080000001F0000000C00000016000000000000C00C00000012000000FF7F00000C00000033000000
310
000000000C00000013000000891300003C0000000600000002000000BF6231D958B74C405D0315B2622330C00000000000000000AB7B409C13414D40609BD2169E422DC000000000000000000C00000013000000112700003C0000000600000002000000AB7B409C13414D40609BD2169E422DC0000000000000000011E2A6
310
027A474D40609BD2169E422DC000000000000000000C00000016000000000000C00C00000012000000FF7F00000C00000017000000000000000C000000130000009A3A00000C00000016000000000000C00C00000012000000FF7F00000C00000017000000FFFFFFFF0C00000033000000000000000C000000330000000000
310
00000C00000010000000040000000C00000016000000000000C084000000060000000500000011E2A6027A474D4093CE054AD1152DC00000000000000000B830215CC9574D4093CE054AD1152DC00000000000000000B830215CC9574D402D689FE36A6F2DC0000000000000000011E2A6027A474D402D689FE36A6F2DC000
310
0000000000000011E2A6027A474D4093CE054AD1152DC000000000000000000C0000000E000000000100000C00000017000000FFFFFFFF0C0000003300000000000000
100
AcDbMLeader
300
CONTEXT_DATA{
 40
1.0
 10
58.55841096066082
 20
-14.6301123745049
 30
0.0
 41
0.125
140
0.125
145
0.025
174
     1
175
     1
176
     0
177
     0
290
     1
304
B
 11
0.0
 21
0.0
 31
1.0
340
B5
 12
58.58341096066081
 22
-14.5676123745049
 32
0.0
 13
1.0
 23
0.0
 33
0.0
 42
0.0
 43
0.0
 44
0.0
 45
1.0
170
     1
 90
-1073741824
171
     1
172
     5
 91
-1027028792
141
1.5
 92
        0
291
     1
292
     1
173
     0
293
     0
142
0.0
143
0.0
294
     0
295
     0
296
     0
110
58.4702990999574
120
-13.71025412851318
130
0.0
111
1.0
121
0.0
131
0.0
112
0.0
122
1.0
132
0.0
297
     0
302
LEADER{
290
     1
291
     1
 10
58.50841096066082
 20
-14.6301123745049
 30
0.0
 11
1.0
 21
0.0
 31
0.0
 90
        0
 40
0.05
304
LEADER_LINE{
 10
57.35979828250021
 20
-16.23998004403375
 30
0.0
 91
        0
305
}
303
}
301
}
340
114
 90
   410784
170
     1
 91
-1073741824
171
    -2
290
     1
291
     1
 41
0.05
342
115
 42
0.125
172
     2
343
B5
173
     1
 95
        1
174
     0
175
     0
 92
-1073741824
292
     1
 93
-1073741824
 10
1.0
 20
1.0
 30
1.0
 43
0.0
176
     0
293
     0
294
     0
178
     0
179
     1
 45
1.0
1001
RJP
1000
© - 20150224
1001
ACAD_MLEADERVER
1070
     2
  0
MULTILEADER
  5
156
102
{ACAD_XDICTIONARY
360
1DC
102
}
330
2
100
AcDbEntity
  8
LP_Mleader
 92
     1972
310
B4070000420000000C00000016000000000000C00C00000033000000000000000C00000013000000993A00000C00000016000000000000C20C00000014000000010000006C00000007000000040000001CA3C99BFFE14C405A042B01D62A31C00000000000000000D43D538AD9FA4C405A042B01D62A31C000000000000000
310
00D43D538AD9FA4C405A042B01D66A31C000000000000000001CA3C99BFFE14C405A042B01D66A31C000000000000000000C00000016000000000000C00C0000001400000001000000A40000000B0000009581A9A775E84C405A042B01D65A31C0000000000000000000000000000000000000000000000000000000000000
310
F03F000000000000F03F000000000000000000000000000000004600E57B0100000001000000000000000000C03F000000000000F03F0000000000000000000000000000F03F0000000000000000000000000000000000000000417269616C204E6172726F77000000000097E57B0C00000033000000000000000C00000010
310
000000040000000C00000016000000000000C00C00000012000000FF7F00000C0000001300000001000000880000001D000000264A2304BB70B7BF28A28600BFC8B53F000000000000000018E989A0C6B54C4028A28600BFC8B5BF264A2304BB70B7BF00000000000000002CAAB1DE0E9A31C0000000000000000000000000
310
00000000000000000000C03F0000000000000000000000000000000000000000000000000000000000000000000000000000F03F0C00000016000000010000C30C00000017000000FDFFFFFF0C0000001400000002000000100000001900000000000000000000004C000000210000003D0000004509A9999999999993F409
310
0200000000000000000000000000000000C040000000003C2FF402F6A7952C4D63F3657E861F3A4F02FCD95FA187CE93C0BF0000000C000000120000000000000064000000040000000C5F8D3FE66BC63FBDBED8444D9B004000000000000000006D1DC84269AA004000000000000000000000000000000000000000000000
310
F03FE2ABF1C77CCDF2BFAAF156EB8585FBBF0000000000000000B054C1C8507CE03F000000000C00000016000000010000C30C00000017000000FDFFFFFF0C00000014000000020000001000000019000000000000000000000046000000210000003700000008005024080000000000000000000000000000000300000000
310
0000E0BF226A666666666724FC9A9999999999993F26A666666666664FFF0034000C0000001200000000000000540000002000000002000000000000000000000000000000000000000000000000000000000000000000E0BF0000000000000000000000000000000000000000000000000000000000000000000000000000
310
F03F0C00000016000000010000C30C00000017000000FDFFFFFF0C0000001400000002000000100000001900000000000000000000004C000000210000003D0000004509A9999999999993F4090200000000000000000000000000000000C040000000003C2FF402F6A7952C4D6BF3657E861F3A4F00FCD95FA187CE93C03F
310
4FFF000C000000120000000000000064000000040000000C5F8D3FE66BC63FBDBED8444D9B00C000000000000000006D1DC84269AA004000000000000000000000000000000000000000000000F03F0C5F8D3FE66BC6BFBDBED8444D9B00400000000000000000B854C1C8507CE03F000000000C00000016000000010000C3
310
0C00000017000000FDFFFFFF0C0000001400000002000000100000001900000000000000000000004E000000210000003F0000000800502408000000000003C2FC00000000020244F3000000000000E0BFC000000000000000226A666666666724FC9A9999999999993F26A666666666664FFF0000000C0000001200000000
310
000000540000002000000002000000000000000000F0BF000000000080913C0000000000000000000000000000E0BF0000000000000000000000000000000000000000000000000000000000000000000000000000F03F080000001F0000000C00000016000000000000C00C00000012000000FF7F00000C00000033000000
310
000000000C00000013000000891300003C0000000600000002000000BDFA0BFE7EC14C408A23B11F468431C000000000000000008309300266E04C405A042B01D64A31C000000000000000000C00000013000000112700003C00000006000000020000008309300266E04C405A042B01D64A31C00000000000000000E96F96
310
68CCE64C405A042B01D64A31C000000000000000000C00000016000000000000C00C00000012000000FF7F00000C00000017000000000000000C000000130000009A3A00000C00000016000000000000C00C00000012000000FF7F00000C00000017000000FFFFFFFF0C00000033000000000000000C000000330000000000
310
00000C00000010000000040000000C00000016000000000000C0840000000600000005000000E96F9668CCE64C40F49DC49A6F3431C00000000000000000077186BD0CF64C40F49DC49A6F3431C00000000000000000077186BD0CF64C40C16A91673C6131C00000000000000000E96F9668CCE64C40C16A91673C6131C000
310
00000000000000E96F9668CCE64C40F49DC49A6F3431C000000000000000000C0000000E000000000100000C00000017000000FFFFFFFF0C0000003300000000000000
100
AcDbMLeader
300
CONTEXT_DATA{
 40
1.0
 10
57.80311305375636
 20
-17.29232795047969
 30
0.0
 41
0.125
140
0.125
145
0.025
174
     1
175
     1
176
     0
177
     0
290
     1
304
F
 11
0.0
 21
0.0
 31
1.0
340
B5
 12
57.82811305375637
 22
-17.22982795047969
 32
0.0
 13
1.0
 23
0.0
 33
0.0
 42
0.0
 43
0.0
 44
0.0
 45
1.0
170
     1
 90
-1073741824
171
     1
172
     5
 91
-1027028792
141
1.5
 92
        0
291
     1
292
     1
173
     0
293
     0
142
0.0
143
0.0
294
     0
295
     0
296
     0
110
57.71500119305295
120
-18.21218619647142
130
0.0
111
1.0
121
0.0
131
0.0
112
0.0
122
1.0
132
0.0
297
     0
302
LEADER{
290
     1
291
     1
 10
57.75311305375637
 20
-17.29232795047969
 30
0.0
 11
1.0
 21
0.0
 31
0.0
 90
        0
 40
0.05
304
LEADER_LINE{
 10
57.42012411817467
 20
-17.60178939664381
 30
0.0
 91
        0
305
}
303
}
301
}
340
114
 90
   410784
170
     1
 91
-1073741824
171
    -2
290
     1
291
     1
 41
0.05
342
115
 42
0.125
172
     2
343
B5
173
     1
 95
        1
174
     0
175
     0
 92
-1073741824
292
     1
 93
-1073741824
 10
1.0
 20
1.0
 30
1.0
 43
0.0
176
     0
293
     0
294
     0
178
     0
179
     1
 45
1.0
1001
RJP
1000
© - 20150224
1001
ACAD_MLEADERVER
1070
     2
  0
MULTILEADER
  5
157
102
{ACAD_XDICTIONARY
360
1DE
102
}
330
2
100
AcDbEntity
  8
LP_Mleader
 92
     1972
310
B4070000420000000C00000016000000000000C00C00000033000000000000000C00000013000000993A00000C00000016000000000000C20C00000014000000010000006C0000000700000004000000E4380957CC814D406E694C0AD22534C000000000000000009CD39245A69A4D406E694C0AD22534C000000000000000
310
009CD39245A69A4D406E694C0AD26534C00000000000000000E4380957CC814D406E694C0AD26534C000000000000000000C00000016000000000000C00C0000001400000001000000A40000000B0000005D17E96242884D406E694C0AD25534C0000000000000000000000000000000000000000000000000000000000000
310
F03F000000000000F03F00000000000000000000000000000000460045000100000001000000000000000000C03F000000000000F03F0000000000000000000000000000F03F0000000000000000000000000000000000000000417269616C204E6172726F7700005400000031000C00000033000000000000000C00000010
310
000000040000000C00000016000000000000C00C00000012000000FF7F00000C0000001300000001000000880000001D0000009C8DCED0083CAEBFD77122D23C34BCBF0000000000000000C8D70974FD624D40D77122D23C34BC3F9C8DCED0083CAEBF00000000000000008044DF7FD5D833C0000000000000000000000000
310
00000000000000000000C03F0000000000000000000000000000000000000000000000000000000000000000000000000000F03F0C00000016000000010000C30C00000017000000FDFFFFFF0C0000001400000002000000100000001900000000000000000000004C000000210000003D0000004509A9999999999993F409
310
0200000000000000000000000000000000C040000000003C2FF402F6A7952C4D63F3657E861F3A4F02FCD95FA187CE93C0BF4FFF000C000000120000000000000064000000040000000C5F8D3FE66BC63FBDBED8444D9B004000000000000000006D1DC84269AA004000000000000000000000000000000000000000000000
310
F03FE2ABF1C77CCDF2BFAAF156EB8585FBBF0000000000000000B054C1C8507CE03F000000000C00000016000000010000C30C00000017000000FDFFFFFF0C00000014000000020000001000000019000000000000000000000046000000210000003700000008005024080000000000000000000000000000000300000000
310
0000E0BF226A666666666724FC9A9999999999993F26A666666666664FFF0034000C0000001200000000000000540000002000000002000000000000000000000000000000000000000000000000000000000000000000E0BF0000000000000000000000000000000000000000000000000000000000000000000000000000
310
F03F0C00000016000000010000C30C00000017000000FDFFFFFF0C0000001400000002000000100000001900000000000000000000004C000000210000003D0000004509A9999999999993F4090200000000000000000000000000000000C040000000003C2FF402F6A7952C4D6BF3657E861F3A4F00FCD95FA187CE93C03F
310
0000000C000000120000000000000064000000040000000C5F8D3FE66BC63FBDBED8444D9B00C000000000000000006D1DC84269AA004000000000000000000000000000000000000000000000F03F0C5F8D3FE66BC6BFBDBED8444D9B00400000000000000000B854C1C8507CE03F000000000C00000016000000010000C3
310
0C00000017000000FDFFFFFF0C0000001400000002000000100000001900000000000000000000004E000000210000003F0000000800502408000000000003C2FC00000000020244F3000000000000E0BFC000000000000000226A666666666724FC9A9999999999993F26A666666666664FFF0000000C0000001200000000
310
000000540000002000000002000000000000000000F0BF000000000080913C0000000000000000000000000000E0BF0000000000000000000000000000000000000000000000000000000000000000000000000000F03F080000001F0000000C00000016000000000000C00C00000012000000FF7F00000C00000033000000
310
000000000C00000013000000891300003C00000006000000020000006B0B3E768C6A4D40F266B1BC09F533C000000000000000004B9F6FBD32804D406E694C0AD24534C000000000000000000C00000013000000112700003C00000006000000020000004B9F6FBD32804D406E694C0AD24534C00000000000000000B105D6
310
2399864D406E694C0AD24534C000000000000000000C00000016000000000000C00C00000012000000FF7F00000C00000017000000000000000C000000130000009A3A00000C00000016000000000000C00C00000012000000FF7F00000C00000017000000FFFFFFFF0C00000033000000000000000C000000330000000000
310
00000C00000010000000040000000C00000016000000000000C0840000000600000005000000B105D62399864D400803E6A36B2F34C00000000000000000CF06C678D9954D400803E6A36B2F34C00000000000000000CF06C678D9954D40D5CFB270385C34C00000000000000000B105D62399864D40D5CFB270385C34C000
310
00000000000000B105D62399864D400803E6A36B2F34C000000000000000000C0000000E000000000100000C00000017000000FFFFFFFF0C0000003300000000000000
100
AcDbMLeader
300
CONTEXT_DATA{
 40
1.0
 10
59.05154846144013
 20
-20.27273620954059
 30
0.0
 41
0.125
140
0.125
145
0.025
174
     1
175
     1
176
     0
177
     0
290
     1
304
F
 11
0.0
 21
0.0
 31
1.0
340
B5
 12
59.07654846144012
 22
-20.21023620954059
 32
0.0
 13
1.0
 23
0.0
 33
0.0
 42
0.0
 43
0.0
 44
0.0
 45
1.0
170
     1
 90
-1073741824
171
     1
172
     5
 91
-1027028792
141
1.5
 92
        0
291
     1
292
     1
173
     0
293
     0
142
0.0
143
0.0
294
     0
295
     0
296
     0
110
58.96343660073671
120
-21.19259445553231
130
0.0
111
1.0
121
0.0
131
0.0
112
0.0
122
1.0
132
0.0
297
     0
302
LEADER{
290
     1
291
     1
 10
59.00154846144013
 20
-20.27273620954059
 30
0.0
 11
1.0
 21
0.0
 31
0.0
 90
        0
 40
0.05
304
LEADER_LINE{
 10
58.77335978012666
 20
-19.84700774384373
 30
0.0
 91
        0
305
}
303
}
301
}
340
114
 90
   410784
170
     1
 91
-1073741824
171
    -2
290
     1
291
     1
 41
0.05
342
115
 42
0.125
172
     2
343
B5
173
     1
 95
        1
174
     0
175
     0
 92
-1073741824
292
     1
 93
-1073741824
 10
1.0
 20
1.0
 30
1.0
 43
0.0
176
     0
293
     0
294
     0
178
     0
179
     1
 45
1.0
1001
RJP
1000
© - 20150224
1001
ACAD_MLEADERVER
1070
     2
  0
MULTILEADER
  5
158
102
{ACAD_XDICTIONARY
360
1E0
102
}
330
2
100
AcDbEntity
  8
LP_Mleader
 92
     1972
310
B4070000420000000C00000016000000000000C00C00000033000000000000000C00000013000000993A00000C00000016000000000000C20C00000014000000010000006C000000070000000400000021D30CC79D034E407A6A699DEC0731C00000000000000000D96D96B5771C4E407A6A699DEC0731C000000000000000
310
00D96D96B5771C4E407A6A699DEC4731C0000000000000000021D30CC79D034E407A6A699DEC4731C000000000000000000C00000016000000000000C00C0000001400000001000000A40000000B0000009AB1ECD2130A4E407A6A699DEC3731C0000000000000000000000000000000000000000000000000000000000000
310
F03F000000000000F03F000000000000000000000000000000004600E57B0100000001000000000000000000C03F000000000000F03F0000000000000000000000000000F03F0000000000000000000000000000000000000000417269616C204E6172726F77000000000093E57B0C00000033000000000000000C00000010
310
000000040000000C00000016000000000000C00C00000012000000FF7F00000C0000001300000001000000880000001D0000005C4C90749747B63F437313554CF8B6BF00000000000000009839BD1FD2494E40437313554CF8B63F5C4C90749747B63F0000000000000000147957F2B4CD30C0000000000000000000000000
310
00000000000000000000C03F0000000000000000000000000000000000000000000000000000000000000000000000000000F03F0C00000016000000010000C30C00000017000000FDFFFFFF0C0000001400000002000000100000001900000000000000000000004C000000210000003D0000004509A9999999999993F409
310
0200000000000000000000000000000000C040000000003C2FF402F6A7952C4D63F3657E861F3A4F02FCD95FA187CE93C0BF0000000C000000120000000000000064000000040000000C5F8D3FE66BC63FBDBED8444D9B004000000000000000006D1DC84269AA004000000000000000000000000000000000000000000000
310
F03FE2ABF1C77CCDF2BFAAF156EB8585FBBF0000000000000000B054C1C8507CE03F000000000C00000016000000010000C30C00000017000000FDFFFFFF0C00000014000000020000001000000019000000000000000000000046000000210000003700000008005024080000000000000000000000000000000300000000
310
0000E0BF226A666666666724FC9A9999999999993F26A666666666664FFF0000000C0000001200000000000000540000002000000002000000000000000000000000000000000000000000000000000000000000000000E0BF0000000000000000000000000000000000000000000000000000000000000000000000000000
310
F03F0C00000016000000010000C30C00000017000000FDFFFFFF0C0000001400000002000000100000001900000000000000000000004C000000210000003D0000004509A9999999999993F4090200000000000000000000000000000000C040000000003C2FF402F6A7952C4D6BF3657E861F3A4F00FCD95FA187CE93C03F
310
0000000C000000120000000000000064000000040000000C5F8D3FE66BC63FBDBED8444D9B00C000000000000000006D1DC84269AA004000000000000000000000000000000000000000000000F03F0C5F8D3FE66BC6BFBDBED8444D9B00400000000000000000B854C1C8507CE03F000000000C00000016000000010000C3
310
0C00000017000000FDFFFFFF0C0000001400000002000000100000001900000000000000000000004E000000210000003F0000000800502408000000000003C2FC00000000020244F3000000000000E0BFC000000000000000226A666666666724FC9A9999999999993F26A666666666664FFF0000000C0000001200000000
310
000000540000002000000002000000000000000000F0BF000000000080913C0000000000000000000000000000E0BF0000000000000000000000000000000000000000000000000000000000000000000000000000F03F080000001F0000000C00000016000000000000C00C00000012000000FF7F00000C00000033000000
310
000000000C00000013000000891300003C000000060000000200000072F10254AE3E4E40878CAC3EADE430C000000000000000007207304F111E4E407A6A699DEC2731C000000000000000000C00000013000000122700003C00000006000000020000007207304F111E4E407A6A699DEC2731C000000000000000000CA1C9
310
E8AA174E407A6A699DEC2731C000000000000000000C00000016000000000000C00C00000012000000FF7F00000C00000017000000000000000C000000130000009A3A00000C00000016000000000000C00C00000012000000FF7F00000C00000017000000FFFFFFFF0C00000033000000000000000C000000330000000000
310
00000C00000010000000040000000C00000016000000000000C0840000000600000005000000EE9FD9936A084E4014040337861131C000000000000000000CA1C9E8AA174E4014040337861131C000000000000000000CA1C9E8AA174E40E1D0CF03533E31C00000000000000000EE9FD9936A084E40E1D0CF03533E31C000
310
00000000000000EE9FD9936A084E4014040337861131C000000000000000000C0000000E000000000100000C00000017000000FFFFFFFF0C0000003300000000000000
100
AcDbMLeader
300
CONTEXT_DATA{
 40
1.0
 10
60.06575248838622
 20
-17.15595420669204
 30
0.0
 41
0.125
140
0.125
145
0.025
174
     1
175
     1
176
     2
177
     0
290
     1
304
F
 11
0.0
 21
0.0
 31
1.0
340
B5
 12
60.15990323872729
 22
-17.09345420669204
 32
0.0
 13
1.0
 23
0.0
 33
0.0
 42
0.0
 43
0.0
 44
0.0
 45
1.0
170
     1
 90
-1073741824
171
     3
172
     5
 91
-1027028792
141
1.5
 92
        0
291
     1
292
     1
173
     0
293
     0
142
0.0
143
0.0
294
     0
295
     0
296
     0
110
59.95095236028853
120
-18.07581245268376
130
0.0
111
1.0
121
0.0
131
0.0
112
0.0
122
1.0
132
0.0
297
     0
302
LEADER{
290
     1
291
     1
 10
60.23490323872728
 20
-17.15595420669204
 30
0.0
 11
-1.0
 21
0.0
 31
0.0
 90
        1
 40
0.05
304
LEADER_LINE{
 10
60.57672497500897
 20
-16.80354227672167
 30
0.0
 91
        0
305
}
303
}
301
}
340
114
 90
   410784
170
     1
 91
-1073741824
171
    -2
290
     1
291
     1
 41
0.05
342
115
 42
0.125
172
     2
343
B5
173
     1
 95
        1
174
     0
175
     0
 92
-1073741824
292
     1
 93
-1073741824
 10
1.0
 20
1.0
 30
1.0
 43
0.0
176
     0
293
     0
294
     0
178
     0
179
     3
 45
1.0
1001
RJP
1000
© - 20150224
1001
ACAD_MLEADERVER
1070
     2
  0
MULTILEADER
  5
159
102
{ACAD_XDICTIONARY
360
1E2
102
}
330
2
100
AcDbEntity
  8
LP_Mleader
 92
     1972
310
B4070000420000000C00000016000000000000C00C00000033000000000000000C00000013000000993A00000C00000016000000000000C20C00000014000000010000006C0000000700000004000000013E63965EBD4C40AEDC5D31543433C00000000000000000F7F3469BF8D84C40AEDC5D31543433C000000000000000
310
00F7F3469BF8D84C40D930392E717533C00000000000000000013E63965EBD4C40D930392E717533C000000000000000000C00000016000000000000C00C0000001400000001000000A40000000B000000D5D352117FC44C407EEE0E7BE56433C0000000000000000000000000000000000000000000000000000000000000
310
F03F000000000000F03F00000000000000000000000000000000430020000100000001000000000000000000C03F000000000000F03F0000000000000000000000000000F03F0000000000000000000000000000000000000000417269616C204E6172726F7700004E00000000000C00000033000000000000000C00000010
310
000000040000000C00000016000000000000C00C00000012000000FF7F00000C0000001300000001000000880000001D000000FF072484EBFDB73FB9D3B335DB2CB53F0000000000000000A8849C9837624D40B9D3B335DB2CB5BFFF072484EBFDB73F0000000000000000C30B4A460B4434C0000000000000000000000000
310
00000000000000000000C03F0000000000000000000000000000000000000000000000000000000000000000000000000000F03F0C00000016000000010000C30C00000017000000FDFFFFFF0C0000001400000002000000100000001900000000000000000000004C000000210000003D0000004509A9999999999993F409
310
0200000000000000000000000000000000C040000000003C2FF402F6A7952C4D63F3657E861F3A4F02FCD95FA187CE93C0BF4FFF000C000000120000000000000064000000040000000C5F8D3FE66BC63FBDBED8444D9B004000000000000000006D1DC84269AA004000000000000000000000000000000000000000000000
310
F03FE2ABF1C77CCDF2BFAAF156EB8585FBBF0000000000000000B054C1C8507CE03F000000000C00000016000000010000C30C00000017000000FDFFFFFF0C00000014000000020000001000000019000000000000000000000046000000210000003700000008005024080000000000000000000000000000000300000000
310
0000E0BF226A666666666724FC9A9999999999993F26A666666666664FFF0000000C0000001200000000000000540000002000000002000000000000000000000000000000000000000000000000000000000000000000E0BF0000000000000000000000000000000000000000000000000000000000000000000000000000
310
F03F0C00000016000000010000C30C00000017000000FDFFFFFF0C0000001400000002000000100000001900000000000000000000004C000000210000003D0000004509A9999999999993F4090200000000000000000000000000000000C040000000003C2FF402F6A7952C4D6BF3657E861F3A4F00FCD95FA187CE93C03F
310
0000000C000000120000000000000064000000040000000C5F8D3FE66BC63FBDBED8444D9B00C000000000000000006D1DC84269AA004000000000000000000000000000000000000000000000F03F0C5F8D3FE66BC6BFBDBED8444D9B00400000000000000000B854C1C8507CE03F000000000C00000016000000010000C3
310
0C00000017000000FDFFFFFF0C0000001400000002000000100000001900000000000000000000004E000000210000003F0000000800502408000000000003C2FC00000000020244F3000000000000E0BFC000000000000000226A666666666724FC9A9999999999993F26A666666666664FFF0000000C0000001200000000
310
000000540000002000000002000000000000000000F0BF000000000080913C0000000000000000000000000000E0BF0000000000000000000000000000000000000000000000000000000000000000000000000000F03F080000001F0000000C00000016000000000000C00C00000012000000FF7F00000C00000033000000
310
000000000C00000013000000891300003C0000000600000002000000A472DAA238564D40EF57146BDE2E34C00000000000000000908DE03492DA4C40DCFDF20A9A5433C000000000000000000C00000013000000112700003C0000000600000002000000908DE03492DA4C40DCFDF20A9A5433C000000000000000002A277A
310
CE2BD44C40DCFDF20A9A5433C000000000000000000C00000016000000000000C00C00000012000000FF7F00000C00000017000000000000000C000000130000009A3A00000C00000016000000000000C00C00000012000000FF7F00000C00000017000000FFFFFFFF0C00000033000000000000000C000000330000000000
310
00000C00000010000000040000000C00000016000000000000C0840000000600000005000000CE0A30632BC24C404876F7CAED3D33C000000000000000002A277ACE2BD44C404876F7CAED3D33C000000000000000002A277ACE2BD44C4040979F94D76B33C00000000000000000CE0A30632BC24C4040979F94D76B33C000
310
00000000000000CE0A30632BC24C404876F7CAED3D33C000000000000000000C0000000E000000000100000C00000017000000FFFFFFFF0C0000003300000000000000
100
AcDbMLeader
300
CONTEXT_DATA{
 40
1.0
 10
57.51694907995044
 20
-19.33047550613797
 30
0.0
 41
0.125
140
0.125
145
0.025
174
     1
175
     1
176
     2
177
     0
290
     1
304
C 
 11
0.0
 21
0.0
 31
1.0
340
B5
 12
57.63258686985494
 22
-19.2669096807628
 32
0.0
 13
1.0
 23
0.0
 33
0.0
 42
0.0
 43
0.0
 44
0.0
 45
1.0
170
     1
 90
-1073741824
171
     3
172
     5
 91
-1027028792
141
1.5
 92
        0
291
     1
292
     1
173
     0
293
     0
142
0.0
143
0.0
294
     0
295
     0
296
     0
110
57.1693079556871
120
-17.73607112072442
130
0.0
111
1.0
121
0.0
131
0.0
112
0.0
122
1.0
132
0.0
297
     0
302
LEADER{
290
     1
291
     1
 10
57.70758686985494
 20
-19.33047550613797
 30
0.0
 11
-1.0
 21
0.0
 31
0.0
 90
        0
 40
0.05
304
LEADER_LINE{
 10
58.76732165949334
 20
-20.26579703624499
 30
0.0
 91
        0
305
}
303
}
301
}
340
114
 90
   410784
170
     1
 91
-1073741824
171
    -2
290
     1
291
     1
 41
0.05
342
115
 42
0.125
172
     2
343
B5
173
     1
 95
        1
174
     0
175
     0
 92
-1073741824
292
     1
 93
-1073741824
 10
1.0
 20
1.0
 30
1.0
 43
0.0
176
     0
293
     0
294
     0
178
     0
179
     3
 45
1.0
1001
RJP
1000
© - 20150224
1001
ACAD_MLEADERVER
1070
     2
  0
MTEXT
  5
15A
102
{ACAD_XDICTIONARY
360
15B
102
}
330
2
100
AcDbEntity
  8
LP_Text
100
AcDbMText
 10
63.29452684510247
 20
-19.16625621192087
 30
0.0
 40
0.125
 41
6.042604024556617
 71
     1
 72
     5
  3
\pi-0.25,l0.25;NOTES:\P\P1. DISTANCE BETWEEN LATERAL RINGS AND EMITTER SPACING TO BE BASED ON   SOIL TYPE, AND TREE CANOPY.\P\P2. PLACE TIE DOWN STAKES EVERY 3' IN SAND, 4' IN LOAM, AND 5' IN CLAY.\P\P3. AT FITTINGS WHERE THERE IS A CHANGE OF DIRECTI
  1
ON SUCH AS TEES OR ELBOWS, USE TIE-DOWN STAKES ON EACH LEG OF THE CHANGE OF DIRECTION.
  7
ArialNarrow
 73
     1
 44
0.75
1001
RJP
1000
© - 20150224
  0
MULTILEADER
  5
15C
102
{ACAD_XDICTIONARY
360
1E4
102
}
330
2
100
AcDbEntity
  8
LP_Mleader
 92
     1972
310
B4070000420000000C00000016000000000000C00C00000033000000000000000C00000013000000993A00000C00000016000000000000C20C00000014000000010000006C00000007000000040000008B86E6C308A84E40AE8C101A32B230C00000000000000000CCF914FBD2C14E40AE8C101A32B230C000000000000000
310
00CCF914FBD2C14E40AE8C101A32F230C000000000000000008B86E6C308A84E40AE8C101A32F230C000000000000000000C00000016000000000000C00C0000001400000001000000A40000000B000000D5A2E12995AE4E40AE8C101A32E230C0000000000000000000000000000000000000000000000000000000000000
310
F03F000000000000F03F00000000000000000000000000000000450020000100000001000000000000000000C03F000000000000F03F0000000000000000000000000000F03F0000000000000000000000000000000000000000417269616C204E6172726F7700004E00000000000C00000033000000000000000C00000010
310
000000040000000C00000016000000000000C00C00000012000000FF7F00000C0000001300000001000000880000001D0000000067338E16E1B4BF203D806FF83FB8BF000000000000000021E062D2267D4E40203D806FF83FB83F0067338E16E1B4BF000000000000000082BABF384D7230C0000000000000000000000000
310
00000000000000000000C03F0000000000000000000000000000000000000000000000000000000000000000000000000000F03F0C00000016000000010000C30C00000017000000FDFFFFFF0C0000001400000002000000100000001900000000000000000000004C000000210000003D0000004509A9999999999993F409
310
0200000000000000000000000000000000C040000000003C2FF402F6A7952C4D63F3657E861F3A4F02FCD95FA187CE93C0BF0000000C000000120000000000000064000000040000000C5F8D3FE66BC63FBDBED8444D9B004000000000000000006D1DC84269AA004000000000000000000000000000000000000000000000
310
F03FE2ABF1C77CCDF2BFAAF156EB8585FBBF0000000000000000B054C1C8507CE03F000000000C00000016000000010000C30C00000017000000FDFFFFFF0C00000014000000020000001000000019000000000000000000000046000000210000003700000008005024080000000000000000000000000000000300000000
310
0000E0BF226A666666666724FC9A9999999999993F26A666666666664FFF0000000C0000001200000000000000540000002000000002000000000000000000000000000000000000000000000000000000000000000000E0BF0000000000000000000000000000000000000000000000000000000000000000000000000000
310
F03F0C00000016000000010000C30C00000017000000FDFFFFFF0C0000001400000002000000100000001900000000000000000000004C000000210000003D0000004509A9999999999993F4090200000000000000000000000000000000C040000000003C2FF402F6A7952C4D6BF3657E861F3A4F00FCD95FA187CE93C03F
310
0000000C000000120000000000000064000000040000000C5F8D3FE66BC63FBDBED8444D9B00C000000000000000006D1DC84269AA004000000000000000000000000000000000000000000000F03F0C5F8D3FE66BC6BFBDBED8444D9B00400000000000000000B854C1C8507CE03F000000000C00000016000000010000C3
310
0C00000017000000FDFFFFFF0C0000001400000002000000100000001900000000000000000000004E000000210000003F0000000800502408000000000003C2FC00000000020244F3000000000000E0BFC000000000000000226A666666666724FC9A9999999999993F26A666666666664FFF0000000C0000001200000000
310
000000540000002000000002000000000000000000F0BF000000000080913C0000000000000000000000000000E0BF0000000000000000000000000000000000000000000000000000000000000000000000000000F03F080000001F0000000C00000016000000000000C00C00000012000000FF7F00000C00000033000000
310
000000000C00000013000000891300003C0000000600000002000000D4F9A95D97874E40BF3A2F318D8A30C00000000000000000F2EC4C2A6FA64E40AE8C101A32D230C000000000000000000C00000013000000112700003C0000000600000002000000F2EC4C2A6FA64E40AE8C101A32D230C000000000000000005853B3
310
90D5AC4E40AE8C101A32D230C000000000000000000C00000016000000000000C00C00000012000000FF7F00000C00000017000000000000000C000000130000009A3A00000C00000016000000000000C00C00000012000000FF7F00000C00000017000000FFFFFFFF0C00000033000000000000000C000000330000000000
310
00000C00000010000000040000000C00000016000000000000C08400000006000000050000005853B390D5AC4E404826AAB3CBBB30C00000000000000000FF2C482E06BD4E404826AAB3CBBB30C00000000000000000FF2C482E06BD4E4015F3768098E830C000000000000000005853B390D5AC4E4015F3768098E830C000
310
000000000000005853B390D5AC4E404826AAB3CBBB30C000000000000000000C0000000E000000000100000C00000017000000FFFFFFFF0C0000003300000000000000
100
AcDbMLeader
300
CONTEXT_DATA{
 40
1.0
 10
61.35026749378329
 20
-16.82107699302713
 30
0.0
 41
0.125
140
0.125
145
0.025
174
     1
175
     1
176
     0
177
     0
290
     1
304
E
 11
0.0
 21
0.0
 31
1.0
340
B5
 12
61.37526749378329
 22
-16.75857699302713
 32
0.0
 13
1.0
 23
0.0
 33
0.0
 42
0.0
 43
0.0
 44
0.0
 45
1.0
170
     1
 90
-1073741824
171
     1
172
     5
 91
-1027028792
141
1.5
 92
        0
291
     1
292
     1
173
     0
293
     0
142
0.0
143
0.0
294
     0
295
     0
296
     0
110
61.26215563307987
120
-17.74093523901885
130
0.0
111
1.0
121
0.0
131
0.0
112
0.0
122
1.0
132
0.0
297
     0
302
LEADER{
290
     1
291
     1
 10
61.3002674937833
 20
-16.82107699302713
 30
0.0
 11
1.0
 21
0.0
 31
0.0
 90
        0
 40
0.05
304
LEADER_LINE{
 10
60.97774724796205
 20
-16.4464908092582
 30
0.0
 91
        0
305
}
303
}
301
}
340
114
 90
   410784
170
     1
 91
-1073741824
171
    -2
290
     1
291
     1
 41
0.05
342
115
 42
0.125
172
     2
343
B5
173
     1
 95
        1
174
     0
175
     0
 92
-1073741824
292
     1
 93
-1073741824
 10
1.0
 20
1.0
 30
1.0
 43
0.0
176
     0
293
     0
294
     0
178
     0
179
     1
 45
1.0
1001
RJP
1000
© - 20150224
1001
ACAD_MLEADERVER
1070
     2
  0
MULTILEADER
  5
15D
102
{ACAD_XDICTIONARY
360
1E6
102
}
330
2
100
AcDbEntity
  8
LP_Mleader
 92
     1972
310
B4070000420000000C00000016000000000000C00C00000033000000000000000C00000013000000993A00000C00000016000000000000C20C00000014000000010000006C0000000700000004000000B2FA3B900EE44D40CA57B2FC021030C000000000000000007BBBF4CBE7FE4D40CA57B2FC021030C000000000000000
310
007BBBF4CBE7FE4D40CA57B2FC025030C00000000000000000B2FA3B900EE44D40CA57B2FC025030C000000000000000000C00000016000000000000C00C0000001400000001000000A40000000B00000012ED0E85AEEA4D40CA57B2FC024030C0000000000000000000000000000000000000000000000000000000000000
310
F03F000000000000F03F000000000000000000000000000000004400E57B0100000001000000000000000000C03F000000000000F03F0000000000000000000000000000F03F0000000000000000000000000000000000000000417269616C204E6172726F77000000000094E57B0C00000033000000000000000C00000010
310
000000040000000C00000016000000000000C00C00000012000000FF7F00000C0000001300000001000000880000001D000000F0126C0C058EBD3F8FBEF3C47789A83F0000000000000000541396055A504E408FBEF3C47789A8BFF0126C0C058EBD3F000000000000000082BABF384D7230C0000000000000000000000000
310
00000000000000000000C03F0000000000000000000000000000000000000000000000000000000000000000000000000000F03F0C00000016000000010000C30C00000017000000FDFFFFFF0C0000001400000002000000100000001900000000000000000000004C000000210000003D0000004509A9999999999993F409
310
0200000000000000000000000000000000C040000000003C2FF402F6A7952C4D63F3657E861F3A4F02FCD95FA187CE93C0BF4FFF000C000000120000000000000064000000040000000C5F8D3FE66BC63FBDBED8444D9B004000000000000000006D1DC84269AA004000000000000000000000000000000000000000000000
310
F03FE2ABF1C77CCDF2BFAAF156EB8585FBBF0000000000000000B054C1C8507CE03F000000000C00000016000000010000C30C00000017000000FDFFFFFF0C00000014000000020000001000000019000000000000000000000046000000210000003700000008005024080000000000000000000000000000000300000000
310
0000E0BF226A666666666724FC9A9999999999993F26A666666666664FFF0000000C0000001200000000000000540000002000000002000000000000000000000000000000000000000000000000000000000000000000E0BF0000000000000000000000000000000000000000000000000000000000000000000000000000
310
F03F0C00000016000000010000C30C00000017000000FDFFFFFF0C0000001400000002000000100000001900000000000000000000004C000000210000003D0000004509A9999999999993F4090200000000000000000000000000000000C040000000003C2FF402F6A7952C4D6BF3657E861F3A4F00FCD95FA187CE93C03F
310
0000000C000000120000000000000064000000040000000C5F8D3FE66BC63FBDBED8444D9B00C000000000000000006D1DC84269AA004000000000000000000000000000000000000000000000F03F0C5F8D3FE66BC6BFBDBED8444D9B00400000000000000000B854C1C8507CE03F000000000C00000016000000010000C3
310
0C00000017000000FDFFFFFF0C0000001400000002000000100000001900000000000000000000004E000000210000003F0000000800502408000000000003C2FC00000000020244F3000000000000E0BFC000000000000000226A666666666724FC9A9999999999993F26A666666666664FFF0000000C0000001200000000
310
000000540000002000000002000000000000000000F0BF000000000080913C0000000000000000000000000000E0BF0000000000000000000000000000000000000000000000000000000000000000000000000000F03F080000001F0000000C00000016000000000000C00C00000012000000FF7F00000C00000033000000
310
000000000C00000013000000891300003C00000006000000020000004BDD0F0393414E40A340DD7C086630C0000000000000000015558E6581004E40CA57B2FC023030C000000000000000000C00000013000000122700003C000000060000000200000015558E6581004E40CA57B2FC023030C00000000000000000AFEE27
310
FF1AFA4D40CA57B2FC023030C000000000000000000C00000016000000000000C00C00000012000000FF7F00000C00000017000000000000000C000000130000009A3A00000C00000016000000000000C00C00000012000000FF7F00000C00000017000000FFFFFFFF0C00000033000000000000000C000000330000000000
310
00000C00000010000000040000000C00000016000000000000C08400000006000000050000007FC7085DDBE84D4064F14B969C1930C00000000000000000AFEE27FF1AFA4D4064F14B969C1930C00000000000000000AFEE27FF1AFA4D4031BE1863694630C000000000000000007FC7085DDBE84D4031BE1863694630C000
310
000000000000007FC7085DDBE84D4064F14B969C1930C000000000000000000C0000000E000000000100000C00000017000000FFFFFFFF0C0000003300000000000000
100
AcDbMLeader
300
CONTEXT_DATA{
 40
1.0
 10
59.81919444016147
 20
-16.1875455794723
 30
0.0
 41
0.125
140
0.125
145
0.025
174
     1
175
     1
176
     2
177
     0
290
     1
304
D
 11
0.0
 21
0.0
 31
1.0
340
B5
 12
59.92894887399503
 22
-16.12504557947231
 32
0.0
 13
1.0
 23
0.0
 33
0.0
 42
0.0
 43
0.0764836289222374
 44
0.0
 45
1.0
170
     1
 90
-1073741824
171
     3
172
     5
 91
-1027028792
141
1.5
 92
        0
291
     1
292
     1
173
     0
293
     0
142
0.0
143
0.0
294
     0
295
     0
296
     0
110
59.73935338436938
120
-17.10740382546403
130
0.0
111
1.0
121
0.0
131
0.0
112
0.0
122
1.0
132
0.0
297
     0
302
LEADER{
290
     1
291
     1
 10
60.00394887399504
 20
-16.1875455794723
 30
0.0
 11
-1.0
 21
0.0
 31
0.0
 90
        1
 40
0.05
304
LEADER_LINE{
 10
60.62774724796205
 20
-16.4464908092582
 30
0.0
 91
        0
305
}
303
}
301
}
340
114
 90
   410784
170
     1
 91
-1073741824
171
    -2
290
     1
291
     1
 41
0.05
342
115
 42
0.125
172
     2
343
B5
173
     1
 95
        1
174
     0
175
     0
 92
-1073741824
292
     1
 93
-1073741824
 10
1.0
 20
1.0
 30
1.0
 43
0.0
176
     0
293
     0
294
     0
178
     0
179
     3
 45
1.0
1001
RJP
1000
© - 20150224
1001
ACAD_MLEADERVER
1070
     2
  0
MULTILEADER
  5
15E
102
{ACAD_XDICTIONARY
360
15F
102
}
102
{ACAD_REACTORS
330
160
102
}
330
2
100
AcDbEntity
  8
LP_Mleader
 92
     3160
310
580C0000660000000C00000016000000000000C00C00000033000000000000000C00000013000000993A00000C00000016000000000000C20C00000014000000010000006C0000000700000004000000834D64EAF8E04D40B0D6CE6AC50533C00000000000000000C4C09221C3FA4D40B0D6CE6AC50533C000000000000000
310
00C4C09221C3FA4D40B0D6CE6AC54533C00000000000000000834D64EAF8E04D40B0D6CE6AC54533C000000000000000000C00000016000000000000C00C0000001400000001000000A40000000B000000CD695F5085E74D40B0D6CE6AC53533C0000000000000000000000000000000000000000000000000000000000000
310
F03F000000000000F03F000000000000000000000000000000004500E57B0100000001000000000000000000C03F000000000000F03F0000000000000000000000000000F03F0000000000000000000000000000000000000000417269616C204E6172726F77000000000097E57B0C00000033000000000000000C00000010
310
000000040000000C00000016000000000000C00C00000012000000FF7F00000C0000001300000001000000880000001D0000000067338E16E1B4BF1E3D806FF83FB83F000000000000000019A7E0F816B64D401E3D806FF83FB8BF0067338E16E1B4BF0000000000000000DCA81F4CAA8533C0000000000000000000000000
310
00000000000000000000C03F0000000000000000000000000000000000000000000000000000000000000000000000000000F03F0C00000016000000010000C30C00000017000000FDFFFFFF0C0000001400000002000000100000001900000000000000000000004C000000210000003D0000004509A9999999999993F409
310
0200000000000000000000000000000000C040000000003C2FF402F6A7952C4D63F3657E861F3A4F02FCD95FA187CE93C0BF0000000C000000120000000000000064000000040000000C5F8D3FE66BC63FBDBED8444D9B004000000000000000006D1DC84269AA004000000000000000000000000000000000000000000000
310
F03FE2ABF1C77CCDF2BFAAF156EB8585FBBF0000000000000000B054C1C8507CE03F000000000C00000016000000010000C30C00000017000000FDFFFFFF0C00000014000000020000001000000019000000000000000000000046000000210000003700000008005024080000000000000000000000000000000300000000
310
0000E0BF226A666666666724FC9A9999999999993F26A666666666664FFF00FFFF0C0000001200000000000000540000002000000002000000000000000000000000000000000000000000000000000000000000000000E0BF0000000000000000000000000000000000000000000000000000000000000000000000000000
310
F03F0C00000016000000010000C30C00000017000000FDFFFFFF0C0000001400000002000000100000001900000000000000000000004C000000210000003D0000004509A9999999999993F4090200000000000000000000000000000000C040000000003C2FF402F6A7952C4D6BF3657E861F3A4F00FCD95FA187CE93C03F
310
0000000C000000120000000000000064000000040000000C5F8D3FE66BC63FBDBED8444D9B00C000000000000000006D1DC84269AA004000000000000000000000000000000000000000000000F03F0C5F8D3FE66BC6BFBDBED8444D9B00400000000000000000B854C1C8507CE03F000000000C00000016000000010000C3
310
0C00000017000000FDFFFFFF0C0000001400000002000000100000001900000000000000000000004E000000210000003F0000000800502408000000000003C2FC00000000020244F3000000000000E0BFC000000000000000226A666666666724FC9A9999999999993F26A666666666664FFF0000000C0000001200000000
310
000000540000002000000002000000000000000000F0BF000000000080913C0000000000000000000000000000E0BF0000000000000000000000000000000000000000000000000000000000000000000000000000F03F080000001F0000000C00000016000000000000C00C00000012000000FF7F00000C00000033000000
310
000000000C00000013000000891300003C0000000600000002000000CCC0278487C04D409F28B0536A6D33C00000000000000000EAB3CA505FDF4D40B0D6CE6AC52533C000000000000000000C0000001300000002000000880000001D000000CC27AC9A9623B0BFE12E5657D0A1BB3F0000000000000000D6D29CEB849D4D
310
40E12E5657D0A1BBBFCC27AC9A9623B0BF00000000000000004509FFEC440734C000000000000000000000000000000000000000000000C03F0000000000000000000000000000000000000000000000000000000000000000000000000000F03F0C00000016000000010000C30C00000017000000FDFFFFFF0C0000001400
310
000002000000100000001900000000000000000000004C000000210000003D0000004509A9999999999993F4090200000000000000000000000000000000C040000000003C2FF402F6A7952C4D63F3657E861F3A4F02FCD95FA187CE93C0BF0000000C000000120000000000000064000000040000000C5F8D3FE66BC63FBD
310
BED8444D9B004000000000000000006D1DC84269AA004000000000000000000000000000000000000000000000F03FE2ABF1C77CCDF2BFAAF156EB8585FBBF0000000000000000B054C1C8507CE03F000000000C00000016000000010000C30C00000017000000FDFFFFFF0C00000014000000020000001000000019000000
310
0000000000000000460000002100000037000000080050240800000000000000000000000000000003000000000000E0BF226A666666666724FC9A9999999999993F26A666666666664FFF0038000C000000120000000000000054000000200000000200000000000000000000000000000000000000000000000000000000
310
0000000000E0BF0000000000000000000000000000000000000000000000000000000000000000000000000000F03F0C00000016000000010000C30C00000017000000FDFFFFFF0C0000001400000002000000100000001900000000000000000000004C000000210000003D0000004509A9999999999993F4090200000000
310
000000000000000000000000C040000000003C2FF402F6A7952C4D6BF3657E861F3A4F00FCD95FA187CE93C03F4FFF000C000000120000000000000064000000040000000C5F8D3FE66BC63FBDBED8444D9B00C000000000000000006D1DC84269AA004000000000000000000000000000000000000000000000F03F0C5F8D
310
3FE66BC6BFBDBED8444D9B00400000000000000000B854C1C8507CE03F000000000C00000016000000010000C30C00000017000000FDFFFFFF0C0000001400000002000000100000001900000000000000000000004E000000210000003F0000000800502408000000000003C2FC00000000020244F3000000000000E0BFC0
310
00000000000000226A666666666724FC9A9999999999993F26A666666666664FFF0000000C0000001200000000000000540000002000000002000000000000000000F0BF000000000080913C0000000000000000000000000000E0BF0000000000000000000000000000000000000000000000000000000000000000000000
310
000000F03F080000001F0000000C00000016000000000000C00C00000012000000FF7F00000C00000033000000000000000C000000130000008A1300003C0000000600000002000000EA28EAB696A54D4016B3A71CA3EB33C00000000000000000EAB3CA505FDF4D40B0D6CE6AC52533C000000000000000000C0000001300
310
0000112700003C0000000600000002000000EAB3CA505FDF4D40B0D6CE6AC52533C00000000000000000501A31B7C5E54D40B0D6CE6AC52533C000000000000000000C00000016000000000000C00C00000012000000FF7F00000C00000017000000000000000C000000130000009A3A00000C00000016000000000000C00C
310
00000012000000FF7F00000C00000017000000FFFFFFFF0C00000033000000000000000C00000033000000000000000C00000010000000040000000C00000016000000000000C0840000000600000005000000501A31B7C5E54D404A7068045F0F33C00000000000000000F7F3C554F6F54D404A7068045F0F33C000000000
310
00000000F7F3C554F6F54D40173D35D12B3C33C00000000000000000501A31B7C5E54D40173D35D12B3C33C00000000000000000501A31B7C5E54D404A7068045F0F33C000000000000000000C0000000E000000000100000C00000017000000FFFFFFFF0C0000003300000000000000
100
AcDbMLeader
300
CONTEXT_DATA{
 40
1.0
 10
59.79509630105588
 20
-19.14754359769603
 30
0.0
 41
0.125
140
0.125
145
0.025
174
     1
175
     1
176
     0
177
     0
290
     1
304
E
 11
0.0
 21
0.0
 31
1.0
340
B5
 12
59.82009630105587
 22
-19.08504359769603
 32
0.0
 13
1.0
 23
0.0
 33
0.0
 42
0.0
 43
0.0
 44
0.0
 45
1.0
170
     1
 90
-1073741824
171
     1
172
     5
 91
-1027028792
141
1.5
 92
        0
291
     1
292
     1
173
     0
293
     0
142
0.0
143
0.0
294
     0
295
     0
296
     0
110
59.70698444035246
120
-18.2276853517043
130
0.0
111
1.0
121
0.0
131
0.0
112
0.0
122
1.0
132
0.0
297
     0
302
LEADER{
290
     1
291
     1
 10
59.74509630105588
 20
-19.14754359769603
 30
0.0
 11
1.0
 21
0.0
 31
0.0
 90
        0
 40
0.05
304
LEADER_LINE{
 10
59.42257605523463
 20
-19.52212978146495
 30
0.0
 91
        0
305
}
304
LEADER_LINE{
 10
59.23061890752221
 20
-20.02839547373266
 30
0.0
 91
        1
305
}
303
}
301
}
340
114
 90
   410784
170
     1
 91
-1073741824
171
    -2
290
     1
291
     1
 41
0.05
342
115
 42
0.125
172
     2
343
B5
173
     1
 95
        1
174
     0
175
     0
 92
-1073741824
292
     1
 93
-1073741824
 10
1.0
 20
1.0
 30
1.0
 43
0.0
176
     0
293
     0
294
     0
178
     0
179
     1
 45
1.0
1001
RJP
1000
© - 20150224
1001
ACAD_MLEADERVER
1070
     2
  0
MULTILEADER
  5
161
102
{ACAD_XDICTIONARY
360
1E9
102
}
330
2
100
AcDbEntity
  8
LP_Mleader
 92
     4348
310
FC1000008A0000000C00000016000000000000C00C00000033000000000000000C00000013000000993A00000C00000016000000000000C20C00000014000000010000006C000000070000000400000083C2431441C94B4090CC14A0BDD72EC00000000000000000C435724B0BE34B4090CC14A0BDD72EC000000000000000
310
00C435724B0BE34B4090CC14A0BD572FC0000000000000000083C2431441C94B4090CC14A0BD572FC000000000000000000C00000016000000000000C00C0000001400000001000000A40000000B000000CDDE3E7ACDCF4B4090CC14A0BD372FC0000000000000000000000000000000000000000000000000000000000000
310
F03F000000000000F03F000000000000000000000000000000004500E57B0100000001000000000000000000C03F000000000000F03F0000000000000000000000000000F03F0000000000000000000000000000000000000000417269616C204E6172726F77000000000096E57B0C00000033000000000000000C00000010
310
000000040000000C00000016000000000000C00C00000012000000FF7F00000C0000001300000002000000880000001D000000FABE2E5CE56ABD3FA13FD85F1730A93F0000000000000000F146D6B1C2714C40A13FD85F1730A9BFFABE2E5CE56ABD3F000000000000000052C6B362B20430C0000000000000000000000000
310
00000000000000000000C03F0000000000000000000000000000000000000000000000000000000000000000000000000000F03F0C00000016000000010000C30C00000017000000FDFFFFFF0C0000001400000002000000100000001900000000000000000000004C000000210000003D0000004509A9999999999993F409
310
0200000000000000000000000000000000C040000000003C2FF402F6A7952C4D63F3657E861F3A4F02FCD95FA187CE93C0BF0000000C000000120000000000000064000000040000000C5F8D3FE66BC63FBDBED8444D9B004000000000000000006D1DC84269AA004000000000000000000000000000000000000000000000
310
F03FE2ABF1C77CCDF2BFAAF156EB8585FBBF0000000000000000B054C1C8507CE03F000000000C00000016000000010000C30C00000017000000FDFFFFFF0C00000014000000020000001000000019000000000000000000000046000000210000003700000008005024080000000000000000000000000000000300000000
310
0000E0BF226A666666666724FC9A9999999999993F26A666666666664FFF0000000C0000001200000000000000540000002000000002000000000000000000000000000000000000000000000000000000000000000000E0BF0000000000000000000000000000000000000000000000000000000000000000000000000000
310
F03F0C00000016000000010000C30C00000017000000FDFFFFFF0C0000001400000002000000100000001900000000000000000000004C000000210000003D0000004509A9999999999993F4090200000000000000000000000000000000C040000000003C2FF402F6A7952C4D6BF3657E861F3A4F00FCD95FA187CE93C03F
310
0000000C000000120000000000000064000000040000000C5F8D3FE66BC63FBDBED8444D9B00C000000000000000006D1DC84269AA004000000000000000000000000000000000000000000000F03F0C5F8D3FE66BC6BFBDBED8444D9B00400000000000000000B854C1C8507CE03F000000000C00000016000000010000C3
310
0C00000017000000FDFFFFFF0C0000001400000002000000100000001900000000000000000000004E000000210000003F0000000800502408000000000003C2FC00000000020244F3000000000000E0BFC000000000000000226A666666666724FC9A9999999999993F26A666666666664FFF0000000C0000001200000000
310
000000540000002000000002000000000000000000F0BF000000000080913C0000000000000000000000000000E0BF0000000000000000000000000000000000000000000000000000000000000000000000000000F03F080000001F0000000C00000016000000000000C00C00000012000000FF7F00000C00000033000000
310
000000000C000000130000008A1300003C0000000600000002000000922F283F0D634C4064B407AE34F02FC000000000000000005DCF0BE5A4E44B4090CC14A0BD172FC000000000000000000C0000001300000001000000880000001D000000D4E5F11A6111B83FD319E27BBA16B53F0000000000000000F6455D2213314C
310
40D319E27BBA16B5BFD4E5F11A6111B83F00000000000000009DC3CA80CF1130C000000000000000000000000000000000000000000000C03F0000000000000000000000000000000000000000000000000000000000000000000000000000F03F0C00000016000000010000C30C00000017000000FDFFFFFF0C0000001400
310
000002000000100000001900000000000000000000004C000000210000003D0000004509A9999999999993F4090200000000000000000000000000000000C040000000003C2FF402F6A7952C4D63F3657E861F3A4F02FCD95FA187CE93C0BF0000000C000000120000000000000064000000040000000C5F8D3FE66BC63FBD
310
BED8444D9B004000000000000000006D1DC84269AA004000000000000000000000000000000000000000000000F03FE2ABF1C77CCDF2BFAAF156EB8585FBBF0000000000000000B054C1C8507CE03F000000000C00000016000000010000C30C00000017000000FDFFFFFF0C00000014000000020000001000000019000000
310
0000000000000000460000002100000037000000080050240800000000000000000000000000000003000000000000E0BF226A666666666724FC9A9999999999993F26A666666666664FFF0000000C000000120000000000000054000000200000000200000000000000000000000000000000000000000000000000000000
310
0000000000E0BF0000000000000000000000000000000000000000000000000000000000000000000000000000F03F0C00000016000000010000C30C00000017000000FDFFFFFF0C0000001400000002000000100000001900000000000000000000004C000000210000003D0000004509A9999999999993F4090200000000
310
000000000000000000000000C040000000003C2FF402F6A7952C4D6BF3657E861F3A4F00FCD95FA187CE93C03F0000000C000000120000000000000064000000040000000C5F8D3FE66BC63FBDBED8444D9B00C000000000000000006D1DC84269AA004000000000000000000000000000000000000000000000F03F0C5F8D
310
3FE66BC6BFBDBED8444D9B00400000000000000000B854C1C8507CE03F000000000C00000016000000010000C30C00000017000000FDFFFFFF0C0000001400000002000000100000001900000000000000000000004E000000210000003F0000000800502408000000000003C2FC00000000020244F3000000000000E0BFC0
310
00000000000000226A666666666724FC9A9999999999993F26A666666666664FFF0000000C0000001200000000000000540000002000000002000000000000000000F0BF000000000080913C0000000000000000000000000000E0BF0000000000000000000000000000000000000000000000000000000000000000000000
310
000000F03F080000001F0000000C00000016000000000000C00C00000012000000FF7F00000C00000033000000000000000C00000013000000891300003C000000060000000200000003CDCF710A254C4006C39D8C71F92FC000000000000000005DCF0BE5A4E44B4090CC14A0BD172FC000000000000000000C0000001300
310
000003000000880000001D00000052543B42EE3CA63F8760F89B9101BE3F00000000000000003561987712F74B408760F89B9101BEBF52543B42EE3CA63F00000000000000007F4D97A2A9DE2FC000000000000000000000000000000000000000000000C03F00000000000000000000000000000000000000000000000000
310
00000000000000000000000000F03F0C00000016000000010000C30C00000017000000FDFFFFFF0C0000001400000002000000100000001900000000000000000000004C000000210000003D0000004509A9999999999993F4090200000000000000000000000000000000C040000000003C2FF402F6A7952C4D63F3657E86
310
1F3A4F02FCD95FA187CE93C0BF0000000C000000120000000000000064000000040000000C5F8D3FE66BC63FBDBED8444D9B004000000000000000006D1DC84269AA004000000000000000000000000000000000000000000000F03FE2ABF1C77CCDF2BFAAF156EB8585FBBF0000000000000000B054C1C8507CE03F000000
310
000C00000016000000010000C30C00000017000000FDFFFFFF0C000000140000000200000010000000190000000000000000000000460000002100000037000000080050240800000000000000000000000000000003000000000000E0BF226A666666666724FC9A9999999999993F26A666666666664FFF0000000C000000
310
1200000000000000540000002000000002000000000000000000000000000000000000000000000000000000000000000000E0BF0000000000000000000000000000000000000000000000000000000000000000000000000000F03F0C00000016000000010000C30C00000017000000FDFFFFFF0C00000014000000020000
310
00100000001900000000000000000000004C000000210000003D0000004509A9999999999993F4090200000000000000000000000000000000C040000000003C2FF402F6A7952C4D6BF3657E861F3A4F00FCD95FA187CE93C03F002E000C000000120000000000000064000000040000000C5F8D3FE66BC63FBDBED8444D9B
310
00C000000000000000006D1DC84269AA004000000000000000000000000000000000000000000000F03F0C5F8D3FE66BC6BFBDBED8444D9B00400000000000000000B854C1C8507CE03F000000000C00000016000000010000C30C00000017000000FDFFFFFF0C000000140000000200000010000000190000000000000000
310
0000004E000000210000003F0000000800502408000000000003C2FC00000000020244F3000000000000E0BFC000000000000000226A666666666724FC9A9999999999993F26A666666666664FFF0000000C0000001200000000000000540000002000000002000000000000000000F0BF000000000080913C000000000000
310
0000000000000000E0BF0000000000000000000000000000000000000000000000000000000000000000000000000000F03F080000001F0000000C00000016000000000000C00C00000012000000FF7F00000C00000033000000000000000C000000130000008B1300003C000000060000000200000060D2073C83F14B40BE
310
5C5F7FA6A22FC000000000000000005DCF0BE5A4E44B4090CC14A0BD172FC000000000000000000C00000013000000122700003C00000006000000020000005DCF0BE5A4E44B4090CC14A0BD172FC00000000000000000F768A57E3EDE4B4090CC14A0BD172FC000000000000000000C00000016000000000000C00C000000
310
12000000FF7F00000C00000017000000000000000C000000130000009A3A00000C00000016000000000000C00C00000012000000FF7F00000C00000017000000FFFFFFFF0C00000033000000000000000C00000033000000000000000C00000010000000040000000C00000016000000000000C08400000006000000050000
310
00508F10E10DCE4B40C3FF47D3F0EA2EC00000000000000000F768A57E3EDE4B40C3FF47D3F0EA2EC00000000000000000F768A57E3EDE4B405D99E16C8A442FC00000000000000000508F10E10DCE4B405D99E16C8A442FC00000000000000000508F10E10DCE4B40C3FF47D3F0EA2EC000000000000000000C0000000E00
310
0000000100000C00000017000000FFFFFFFF0C0000003300000000000000
100
AcDbMLeader
300
CONTEXT_DATA{
 40
1.0
 10
55.60979855831703
 20
-15.54636860135932
 30
0.0
 41
0.125
140
0.125
145
0.025
174
     1
175
     1
176
     2
177
     0
290
     1
304
E
 11
0.0
 21
0.0
 31
1.0
340
B5
 12
55.71128218723927
 22
-15.48386860135932
 32
0.0
 13
1.0
 23
0.0
 33
0.0
 42
0.0
 43
0.0
 44
0.0
 45
1.0
170
     1
 90
-1073741824
171
     3
172
     5
 91
-1027028792
141
1.5
 92
        0
291
     1
292
     1
173
     0
293
     0
142
0.0
143
0.0
294
     0
295
     0
296
     0
110
55.52168669761361
120
-14.62651035536759
130
0.0
111
1.0
121
0.0
131
0.0
112
0.0
122
1.0
132
0.0
297
     0
302
LEADER{
290
     1
291
     1
 10
55.78628218723928
 20
-15.54636860135932
 30
0.0
 11
-1.0
 21
0.0
 31
0.0
 90
        1
 40
0.05
304
LEADER_LINE{
 10
56.88875410998106
 20
-16.01834694756537
 30
0.0
 91
        1
305
}
304
LEADER_LINE{
 10
56.38339643053398
 20
-16.06957249594017
 30
0.0
 91
        0
305
}
304
LEADER_LINE{
 10
55.93025107326904
 20
-15.93488796326596
 30
0.0
 91
        2
305
}
303
}
301
}
340
114
 90
   410784
170
     1
 91
-1073741824
171
    -2
290
     1
291
     1
 41
0.05
342
115
 42
0.125
172
     2
343
B5
173
     1
 95
        1
174
     0
175
     0
 92
-1073741824
292
     1
 93
-1073741824
 10
1.0
 20
1.0
 30
1.0
 43
0.0
176
     0
293
     0
294
     0
178
     0
179
     1
 45
1.0
1001
RJP
1000
© - 20150224
1001
ACAD_MLEADERVER
1070
     2
  0
INSERT
  5
162
330
2
100
AcDbEntity
  8
LP_Detail
 62
     8
100
AcDbBlockReference
  2
Juniper
 10
57.3597982825002
 20
-16.23998004403375
 30
0.0
 41
0.22
 42
0.22
 43
0.22
1001
RJP
1000
© - 20150224
  0
ENDSEC
  0
SECTION
  2
OBJECTS
  0
DICTIONARY
  5
A
330
0
100
AcDbDictionary
281
     1
  3
ACAD_CIP_PREVIOUS_PRODUCT_INFO
350
19A
  3
ACAD_COLOR
350
4E
  3
ACAD_DETAILVIEWSTYLE
350
192
  3
ACAD_FIELDLIST
350
16A
  3
ACAD_GROUP
350
3B
  3
ACAD_LAYOUT
350
1C
  3
ACAD_MATERIAL
350
10
  3
ACAD_MLEADERSTYLE
350
51
  3
ACAD_MLINESTYLE
350
3C
  3
ACAD_PLOTSETTINGS
350
3D
  3
ACAD_PLOTSTYLENAME
350
9
  3
ACAD_SCALELIST
350
4F
  3
ACAD_SECTIONVIEWSTYLE
350
190
  3
ACAD_TABLESTYLE
350
50
  3
ACAD_VISUALSTYLE
350
33
  3
ACDB_RECOMPOSE_DATA
350
1B0
  3
AcDbVariableDictionary
350
16F
  3
AcDsDecomposeData
350
1B6
1001
BBSI_PltSel
1000
1
1000

1001
BBSI_Bookmarks
1000
1
1000
1
1000
0
1000
1
1000
0
1000
0
1000
0
1000
0
1000
0
1000
0
1000
0
1001
BBSI_BookmarksEx
1000
0
1000
0
1000

1000
0
1001
BBSI_Plots
1000

1000
ANSI_B_(17.00_x_11.00_Inches)
1000
431.799987792969
1000
279.399993896484
1000
0
1000
1
1000
1
1000
0
1000
0
1000
1
1000
0
1000
1
1000
1.56885758041751
1000
0
1000
1
1000
Full_B&W.ctb
1000
0
1000
0
1000
1
1000
1
1000
0
1000
0
1000
0
1000
0
1000
0
1000
0
1000

1000

  0
DICTIONARY
  5
35
330
30
100
AcDbDictionary
280
     1
281
     1
  0
DICTIONARY
  5
25
330
24
100
AcDbDictionary
280
     1
281
     1
  3
ACAD_LAYERFILTERS
360
26
  3
ACAD_LAYERSTATES
360
27
  0
DICTIONARY
  5
3
330
2
100
AcDbDictionary
280
     1
281
     1
  3
ACAD_ASSOCNETWORK
360
4
  3
ACAD_SORTENTS
360
168
  0
DICTIONARY
  5
A6
330
A5
100
AcDbDictionary
280
     1
281
     1
  3
ACAD_SORTENTS
360
166
  0
DICTIONARY
  5
C4
330
C3
100
AcDbDictionary
280
     1
281
     1
  3
ACAD_ENHANCEDBLOCK
360
C5
  3
ACAD_SORTENTS
360
167
  3
AcDbBlockTableRecordData
360
1C6
  3
AcDbDynamicBlockRoundTripPurgePreventer
360
CD
  0
DICTIONARY
  5
1CD
330
F6
100
AcDbDictionary
280
     1
281
     1
  3
AcDbBlockTableRecordData
360
1CE
  0
DICTIONARY
  5
1CA
330
F0
100
AcDbDictionary
280
     1
281
     1
  3
AcDbBlockTableRecordData
360
1CB
  0
DICTIONARY
  5
116
330
115
100
AcDbDictionary
280
     1
281
     1
  0
DICTIONARY
  5
121
330
120
100
AcDbDictionary
280
     1
281
     1
  3
ACAD_SORTENTS
360
164
  3
AcDbBlockTableRecordData
360
1D4
  0
DICTIONARY
  5
7E
330
7D
100
AcDbDictionary
280
     1
281
     1
  3
ACAD_SORTENTS
360
165
  3
AcDbBlockTableRecordData
360
1C3
  0
DICTIONARY
  5
DE
330
DD
100
AcDbDictionary
280
     1
281
     1
  3
ACAD_SORTENTS
360
163
  3
AcDbBlockTableRecordData
360
1C8
  0
DICTIONARY
  5
AB
330
AA
100
AcDbDictionary
280
     1
281
     1
  3
ACAD_FIELD
360
AC
  0
DICTIONARY
  5
B8
330
B7
100
AcDbDictionary
280
     1
281
     1
  3
ACAD_FIELD
360
B9
  0
DICTIONARY
  5
C0
330
BF
100
AcDbDictionary
280
     1
281
     1
  3
AcDbBlockRepresentation
360
C1
  0
DICTIONARY
  5
EC
330
EB
100
AcDbDictionary
280
     1
281
     1
  0
DICTIONARY
  5
FE
330
FD
100
AcDbDictionary
280
     1
281
     1
  3
ACAD_MTEXT_2008_RT
360
1AE
  0
DICTIONARY
  5
1D0
330
112
100
AcDbDictionary
280
     1
281
     1
  3
ACAD_XREC_ROUNDTRIP
360
1D1
  0
DICTIONARY
  5
14E
330
14D
100
AcDbDictionary
280
     1
281
     1
  0
DICTIONARY
  5
150
330
14F
100
AcDbDictionary
280
     1
281
     1
  0
DICTIONARY
  5
152
330
151
100
AcDbDictionary
280
     1
281
     1
  0
DICTIONARY
  5
1D6
330
153
100
AcDbDictionary
280
     1
281
     1
  3
ACAD_XREC_ROUNDTRIP
360
1D7
  0
DICTIONARY
  5
1D8
330
154
100
AcDbDictionary
280
     1
281
     1
  3
ACAD_XREC_ROUNDTRIP
360
1D9
  0
DICTIONARY
  5
1DA
330
155
100
AcDbDictionary
280
     1
281
     1
  3
ACAD_XREC_ROUNDTRIP
360
1DB
  0
DICTIONARY
  5
1DC
330
156
100
AcDbDictionary
280
     1
281
     1
  3
ACAD_XREC_ROUNDTRIP
360
1DD
  0
DICTIONARY
  5
1DE
330
157
100
AcDbDictionary
280
     1
281
     1
  3
ACAD_XREC_ROUNDTRIP
360
1DF
  0
DICTIONARY
  5
1E0
330
158
100
AcDbDictionary
280
     1
281
     1
  3
ACAD_XREC_ROUNDTRIP
360
1E1
  0
DICTIONARY
  5
1E2
330
159
100
AcDbDictionary
280
     1
281
     1
  3
ACAD_XREC_ROUNDTRIP
360
1E3
  0
DICTIONARY
  5
15B
330
15A
100
AcDbDictionary
280
     1
281
     1
  3
ACAD_MTEXT_2008_RT
360
1AF
  0
DICTIONARY
  5
1E4
330
15C
100
AcDbDictionary
280
     1
281
     1
  3
ACAD_XREC_ROUNDTRIP
360
1E5
  0
DICTIONARY
  5
1E6
330
15D
100
AcDbDictionary
280
     1
281
     1
  3
ACAD_XREC_ROUNDTRIP
360
1E7
  0
DICTIONARY
  5
15F
330
15E
100
AcDbDictionary
280
     1
281
     1
  3
ACAD_DIMASSOC
360
160
  3
ACAD_XREC_ROUNDTRIP
360
1E8
  0
DICTIONARY
  5
1E9
330
161
100
AcDbDictionary
280
     1
281
     1
  3
ACAD_XREC_ROUNDTRIP
360
1EA
  0
XRECORD
  5
19A
102
{ACAD_REACTORS
330
A
102
}
330
A
100
AcDbXrecord
280
     1
300
ACD
300
2015
300
ACD_F_S
  0
DICTIONARY
  5
4E
102
{ACAD_REACTORS
330
A
102
}
330
A
100
AcDbDictionary
281
     1
  0
DICTIONARY
  5
192
102
{ACAD_REACTORS
330
A
102
}
330
A
100
AcDbDictionary
281
     1
  3
Imperial24
350
193
  0
FIELDLIST
  5
16A
102
{ACAD_REACTORS
330
A
102
}
330
A
100
AcDbIdSet
 90
        6
330
AD
330
AE
330
AF
330
BA
330
BB
330
BC
100
AcDbFieldList
  0
DICTIONARY
  5
3B
102
{ACAD_REACTORS
330
A
102
}
330
A
100
AcDbDictionary
281
     1
  0
DICTIONARY
  5
1C
102
{ACAD_REACTORS
330
A
102
}
330
A
100
AcDbDictionary
281
     1
  3
17MM EZ-ID CV DRIPLINE END FEED LAYOUT
350
22
  3
Model
350
1B
  0
DICTIONARY
  5
10
102
{ACAD_REACTORS
330
A
102
}
330
A
100
AcDbDictionary
281
     1
  3
ByBlock
350
46
  3
ByLayer
350
3E
  3
Global
350
F
  0
DICTIONARY
  5
51
102
{ACAD_REACTORS
330
A
102
}
330
A
100
AcDbDictionary
281
     1
  3
ArialNarrow
350
114
  3
Standard
350
18F
  0
DICTIONARY
  5
3C
102
{ACAD_REACTORS
330
A
102
}
330
A
100
AcDbDictionary
281
     1
  3
DUCT_PIPE
350
54
  3
Standard
350
59
  0
DICTIONARY
  5
3D
102
{ACAD_REACTORS
330
A
102
}
330
A
100
AcDbDictionary
281
     1
  0
ACDBDICTIONARYWDFLT
  5
9
102
{ACAD_REACTORS
330
A
102
}
330
A
100
AcDbDictionary
281
     1
  3
Normal
350
8
100
AcDbDictionaryWithDefault
340
8
  0
DICTIONARY
  5
4F
102
{ACAD_REACTORS
330
A
102
}
330
A
100
AcDbDictionary
281
     1
  3
A0
350
5A
  3
A1
350
5B
  3
A2
350
5C
  3
A3
350
5D
  3
A4
350
5E
  3
A5
350
5F
  3
A6
350
60
  3
A7
350
61
  3
A8
350
62
  3
A9
350
63
  3
B0
350
64
  3
B1
350
65
  3
B2
350
66
  3
B3
350
67
  3
B4
350
68
  3
B5
350
69
  3
B6
350
6A
  3
B7
350
6B
  3
B8
350
6C
  3
B9
350
6D
  3
C0
350
6E
  3
C1
350
6F
  3
C2
350
70
  3
C3
350
71
  3
C4
350
72
  3
C5
350
73
  3
C6
350
74
  3
C7
350
75
  3
C8
350
76
  3
C9
350
77
  3
D0
350
78
  3
D1
350
79
  3
D2
350
7A
  0
DICTIONARY
  5
190
102
{ACAD_REACTORS
330
A
102
}
330
A
100
AcDbDictionary
281
     1
  3
Imperial24
350
191
  0
DICTIONARY
  5
50
102
{ACAD_REACTORS
330
A
102
}
330
A
100
AcDbDictionary
281
     1
  3
Standard
350
55
  0
DICTIONARY
  5
33
102
{ACAD_REACTORS
330
A
102
}
330
A
100
AcDbDictionary
281
     1
  3
2dWireframe
350
32
  3
Basic
350
17E
  3
Brighten
350
182
  3
ColorChange
350
186
  3
Conceptual
350
180
  3
Dim
350
181
  3
EdgeColorOff
350
18E
  3
Facepattern
350
185
  3
Flat
350
17A
  3
FlatWithEdges
350
17B
  3
Gouraud
350
17C
  3
GouraudWithEdges
350
17D
  3
Hidden
350
17F
  3
JitterOff
350
18C
  3
Linepattern
350
184
  3
OverhangOff
350
18D
  3
Realistic
350
57
  3
Shaded
350
18B
  3
Shaded with edges
350
18A
  3
Shades of Gray
350
187
  3
Sketchy
350
188
  3
Thicken
350
183
  3
Wireframe
350
58
  3
X-Ray
350
189
  0
XRECORD
  5
1B0
102
{ACAD_REACTORS
330
A
102
}
330
A
100
AcDbXrecord
280
     1
 90
        1
330
55
330
FD
330
14D
330
14F
330
151
330
15A
  0
DICTIONARY
  5
16F
102
{ACAD_REACTORS
330
A
102
}
330
A
100
AcDbDictionary
281
     1
  3
CANNOSCALE
350
176
  3
CMLEADERSTYLE
350
171
  3
CTABLESTYLE
350
170
  3
CVIEWDETAILSTYLE
350
172
  3
CVIEWSECTIONSTYLE
350
173
  3
LAYEREVAL
350
1AC
  3
LAYERNOTIFY
350
178
  3
LIGHTINGUNITS
350
177
  3
MSLTSCALE
350
175
  3
UPDATETHUMBNAIL
350
174
  0
DICTIONARY
  5
1B6
102
{ACAD_REACTORS
330
A
102
}
330
A
100
AcDbDictionary
281
     1
  3
AcDsRecords
350
1B8
  3
AcDsSchemas
350
1B7
1001
ACAD
1070
     2
  0
DICTIONARY
  5
26
102
{ACAD_REACTORS
330
25
102
}
330
25
100
AcDbDictionary
281
     1
  3
_0100-
350
1A0
  3
_0280-
350
19F
  3
_Add Alternate
350
1A2
  3
_Bid Alternate
350
1A3
  3
_Color 253
350
1A5
  3
_Color 8
350
1A1
  3
_Color 84
350
1A4
  3
_Contours
350
1AB
  3
_Demo
350
1A6
  3
_Existing
350
1A7
  3
_Hardscape
350
1AA
  3
_IDT
350
19D
  3
_Mask
350
19E
  3
_NoXref
350
19C
  3
_Row
350
1A8
  3
_Utility
350
1A9
  0
DICTIONARY
  5
27
102
{ACAD_REACTORS
330
25
102
}
330
25
100
AcDbDictionary
281
     1
  0
DICTIONARY
  5
4
102
{ACAD_REACTORS
330
3
102
}
330
3
100
AcDbDictionary
281
     1
  0
SORTENTSTABLE
  5
168
102
{ACAD_REACTORS
330
3
102
}
330
3
100
AcDbSortentsTable
330
2
  0
SORTENTSTABLE
  5
166
102
{ACAD_REACTORS
330
A6
102
}
330
A6
100
AcDbSortentsTable
330
A5
  0
ACAD_EVALUATION_GRAPH
  5
C5
102
{ACAD_REACTORS
330
C4
102
}
330
C4
100
AcDbEvalGraph
 96
      128
 97
      128
 91
        0
 93
       32
 95
       94
360
C6
 92
        2
 92
        2
 92
        0
 92
        3
 91
        1
 93
       32
 95
       95
360
C8
 92
       -1
 92
       -1
 92
        2
 92
        2
 91
        2
 93
       32
 95
       96
360
C9
 92
        0
 92
        0
 92
       -1
 92
       -1
 91
        3
 93
       32
 95
       97
360
CA
 92
        1
 92
        1
 92
       -1
 92
       -1
 91
        4
 93
       32
 95
      101
360
CB
 92
        3
 92
        3
 92
       -1
 92
       -1
 92
        0
 93
        0
 94
        1
 91
        0
 91
        2
 92
       -1
 92
       -1
 92
       -1
 92
        1
 92
       -1
 92
        1
 93
        0
 94
        1
 91
        0
 91
        3
 92
       -1
 92
       -1
 92
        0
 92
        3
 92
       -1
 92
        2
 93
        0
 94
        2
 91
        1
 91
        0
 92
       -1
 92
       -1
 92
       -1
 92
       -1
 92
       -1
 92
        3
 93
        0
 94
        2
 91
        0
 91
        4
 92
       -1
 92
       -1
 92
        1
 92
       -1
 92
       -1
  0
SORTENTSTABLE
  5
167
102
{ACAD_REACTORS
330
C4
102
}
330
C4
100
AcDbSortentsTable
330
C3
  0
DICTIONARY
  5
1C6
102
{ACAD_REACTORS
330
C4
102
}
330
C4
100
AcDbDictionary
280
     1
281
     1
  3
Edit
360
1C7
  0
ACDB_DYNAMICBLOCKPURGEPREVENTER_VERSION
  5
CD
102
{ACAD_REACTORS
330
C4
102
}
330
C4
100
AcDbDynamicBlockPurgePreventer
 70
     1
  0
DICTIONARY
  5
1CE
102
{ACAD_REACTORS
330
1CD
102
}
330
1CD
100
AcDbDictionary
280
     1
281
     1
  3
Edit
360
1CF
  0
DICTIONARY
  5
1CB
102
{ACAD_REACTORS
330
1CA
102
}
330
1CA
100
AcDbDictionary
280
     1
281
     1
  3
Edit
360
1CC
  0
SORTENTSTABLE
  5
164
102
{ACAD_REACTORS
330
121
102
}
330
121
100
AcDbSortentsTable
330
120
331
13A
  5
13B
331
13B
  5
134
331
134
  5
135
331
135
  5
136
331
136
  5
137
331
137
  5
138
331
138
  5
139
331
139
  5
13A
  0
DICTIONARY
  5
1D4
102
{ACAD_REACTORS
330
121
102
}
330
121
100
AcDbDictionary
280
     1
281
     1
  3
Edit
360
1D5
  0
SORTENTSTABLE
  5
165
102
{ACAD_REACTORS
330
7E
102
}
330
7E
100
AcDbSortentsTable
330
7D
  0
DICTIONARY
  5
1C3
102
{ACAD_REACTORS
330
7E
102
}
330
7E
100
AcDbDictionary
280
     1
281
     1
  3
Edit
360
1C4
  0
SORTENTSTABLE
  5
163
102
{ACAD_REACTORS
330
DE
102
}
330
DE
100
AcDbSortentsTable
330
DD
  0
DICTIONARY
  5
1C8
102
{ACAD_REACTORS
330
DE
102
}
330
DE
100
AcDbDictionary
280
     1
281
     1
  3
Edit
360
1C9
  0
DICTIONARY
  5
AC
102
{ACAD_REACTORS
330
AB
102
}
330
AB
100
AcDbDictionary
280
     1
281
     1
  3
TEXT
360
AD
  0
DICTIONARY
  5
B9
102
{ACAD_REACTORS
330
B8
102
}
330
B8
100
AcDbDictionary
280
     1
281
     1
  3
TEXT
360
BA
  0
DICTIONARY
  5
C1
102
{ACAD_REACTORS
330
C0
102
}
330
C0
100
AcDbDictionary
280
     1
281
     1
  3
AcDbRepData
360
C2
  3
AppDataCache
360
D9
  0
XRECORD
  5
1AE
102
{ACAD_REACTORS
330
FE
102
}
330
FE
100
AcDbXrecord
280
     1
 40
6807293.0
  1
\pxi-3,l3,t3;A.^ITO LANDSCAPE PRODUCTS VALVE BOX WITH DRIP REMOTE CONTROL ZONE KIT\P\pi0,l0,tz;\P\pi-3,l3,t3;B.^ISPECIMEN TREE DRIP RING\P\pi0,l0,tz;\P\pi-3,l3,t3;C.^IORNAMENTAL TREE DRIP RING\P\pi0,l0,tz;\P\pi-3,l3,t3;D.^ISHRUB DRIP RING\P\pi0,l0,tz;\P\
  1
pi-3,l3,t3;E.^ILANDSCAPE PRODUCTS 17MM EZ-ID CV COLOR CODED DRIPLINE\P\pi0,l0,tz;\P\pi-3,l3,t3;F.^I17MM INSERT FITTING (TYPICAL) 
  0
XRECORD
  5
1D1
102
{ACAD_REACTORS
330
1D0
102
}
330
1D0
100
AcDbXrecord
280
     1
102
ACAD_ROUNDTRIP_2012_MLEADER
295
     1
  0
XRECORD
  5
1D7
102
{ACAD_REACTORS
330
1D6
102
}
330
1D6
100
AcDbXrecord
280
     1
102
ACAD_ROUNDTRIP_2012_MLEADER
295
     1
  0
XRECORD
  5
1D9
102
{ACAD_REACTORS
330
1D8
102
}
330
1D8
100
AcDbXrecord
280
     1
102
ACAD_ROUNDTRIP_2012_MLEADER
295
     1
  0
XRECORD
  5
1DB
102
{ACAD_REACTORS
330
1DA
102
}
330
1DA
100
AcDbXrecord
280
     1
102
ACAD_ROUNDTRIP_2012_MLEADER
295
     1
  0
XRECORD
  5
1DD
102
{ACAD_REACTORS
330
1DC
102
}
330
1DC
100
AcDbXrecord
280
     1
102
ACAD_ROUNDTRIP_2012_MLEADER
295
     1
  0
XRECORD
  5
1DF
102
{ACAD_REACTORS
330
1DE
102
}
330
1DE
100
AcDbXrecord
280
     1
102
ACAD_ROUNDTRIP_2012_MLEADER
295
     1
  0
XRECORD
  5
1E1
102
{ACAD_REACTORS
330
1E0
102
}
330
1E0
100
AcDbXrecord
280
     1
102
ACAD_ROUNDTRIP_2012_MLEADER
295
     1
  0
XRECORD
  5
1E3
102
{ACAD_REACTORS
330
1E2
102
}
330
1E2
100
AcDbXrecord
280
     1
102
ACAD_ROUNDTRIP_2012_MLEADER
295
     1
  0
XRECORD
  5
1AF
102
{ACAD_REACTORS
330
15B
102
}
330
15B
100
AcDbXrecord
280
     1
 40
3701902.0
  1
\pxi-2,l2;NOTES:\P\P1. DISTANCE BETWEEN LATERAL RINGS AND EMITTER SPACING TO BE BASED ON   SOIL TYPE, AND TREE CANOPY.\P\P2. PLACE TIE DOWN STAKES EVERY 3' IN SAND, 4' IN LOAM, AND 5' IN CLAY.\P\P3. AT FITTINGS WHERE THERE IS A CHANGE OF DIRECTION SU
  1
CH AS TEES OR ELBOWS, USE TIE-DOWN STAKES ON EACH LEG OF THE CHANGE OF DIRECTION.
  0
XRECORD
  5
1E5
102
{ACAD_REACTORS
330
1E4
102
}
330
1E4
100
AcDbXrecord
280
     1
102
ACAD_ROUNDTRIP_2012_MLEADER
295
     1
  0
XRECORD
  5
1E7
102
{ACAD_REACTORS
330
1E6
102
}
330
1E6
100
AcDbXrecord
280
     1
102
ACAD_ROUNDTRIP_2012_MLEADER
295
     1
  0
DIMASSOC
  5
160
102
{ACAD_REACTORS
330
15F
102
}
330
15F
100
AcDbDimAssoc
330
15E
 90
        2
 70
     0
 71
     0
  1
AcDbOsnapPointRef
 72
    10
331
146
 73
     2
 91
        2
 40
0.4735320945957926
 10
0.0
 20
0.0
 30
0.0
 75
     0
  0
XRECORD
  5
1E8
102
{ACAD_REACTORS
330
15F
102
}
330
15F
100
AcDbXrecord
280
     1
102
ACAD_ROUNDTRIP_2012_MLEADER
295
     1
  0
XRECORD
  5
1EA
102
{ACAD_REACTORS
330
1E9
102
}
330
1E9
100
AcDbXrecord
280
     1
102
ACAD_ROUNDTRIP_2012_MLEADER
295
     1
  0
ACDBDETAILVIEWSTYLE
  5
193
102
{ACAD_XDICTIONARY
360
219
102
}
102
{ACAD_REACTORS
330
192
102
}
330
192
100
AcDbModelDocViewStyle
 70
     0
  3
Imperial24
290
     0
100
AcDbDetailViewStyle
 70
     0
 71
     0
 90
        3
 71
     1
340
29
 62
   256
 40
0.24
340
0
 62
   256
 40
0.24
300

 40
0.36
280
     3
 71
     2
340
19
 90
       25
 62
   256
 71
     3
340
29
 62
   256
 40
0.24
 90
        1
 40
0.75
 90
        1
300
%<\AcVar ViewType \f "%tc1">% %<\AcVar ViewDetailId>%\PSCALE %<\AcVar ViewScale \f "%sn">%
 71
     4
340
19
 90
       25
 62
   256
340
19
 90
       25
 62
   256
280
     0
  0
LAYOUT
  5
22
102
{ACAD_XDICTIONARY
360
23
102
}
102
{ACAD_REACTORS
330
1C
102
}
330
1C
100
AcDbPlotSettings
  1

  2
_DWG To PDF.pc3
  4
ANSI_full_bleed_B_(17.00_x_11.00_Inches)
  6

 40
0.7937499880790711
 41
0.7937499880790711
 42
0.79376220703125
 43
0.79376220703125
 44
431.7999877929687
 45
279.3999938964844
 46
-0.793762201070788
 47
-0.7937591493129644
 48
0.0
 49
0.0
140
0.0
141
0.0
142
1.0
143
1.0
 70
   742
 72
     0
 73
     0
 74
     1
  7
Full_B&W.ctb
 75
     0
147
0.9943181163256051
 76
     0
 77
     5
 78
   300
148
93.30700041148388
149
25.54038057288068
100
AcDbLayout
  1
17MM EZ-ID CV DRIPLINE END FEED LAYOUT
 70
     1
 71
     1
 10
-3.673503472381581
 20
-1.005526433529401
 11
13.32649604702664
 21
9.994473326174709
 12
0.0
 22
0.0
 32
0.0
 14
-3.673503953208026
 24
-1.0055267942079
 34
0.0
 15
13.32649604679197
 25
9.994473205792099
 35
0.0
146
0.0
 13
0.0
 23
0.0
 33
0.0
 16
1.0
 26
0.0
 36
0.0
 17
0.0
 27
1.0
 37
0.0
 76
     0
330
1F
1001
PLOTTRANSPARENCY
1071
        1
1001
ACAD_PSEXT
1000
_DWG To PDF.pc3
1000
DWG To PDF
1000
File
1000

1070
     0
  0
LAYOUT
  5
1B
102
{ACAD_REACTORS
330
1C
102
}
330
1C
100
AcDbPlotSettings
  1

  2
\\Aqua-Srv00\Sharp_MX-3110N
  4
Tabloid
  6

 40
5.027082920074462
 41
5.027069091796875
 42
5.027099609375
 43
5.027069091796875
 44
279.3999938964844
 45
431.7999877929687
 46
0.0
 47
2.742070566524153
 48
-0.2499999999999982
 49
-36.25
140
16.75
141
-25.25
142
1.0
143
1.037328178901079
 70
 11956
 72
     0
 73
     1
 74
     4
  7
Full_B&W.ctb
 75
     0
147
0.9640150728956154
 76
     0
 77
     2
 78
   300
148
6.349999999999954
149
920.7499999999999
100
AcDbLayout
  1
Model
 70
     1
 71
     0
 10
0.0
 20
0.0
 11
12.0
 21
9.0
 12
0.0
 22
0.0
 32
0.0
 14
0.0
 24
0.0
 34
0.0
 15
0.0
 25
0.0
 35
0.0
146
0.0
 13
0.0
 23
0.0
 33
0.0
 16
1.0
 26
0.0
 36
0.0
 17
0.0
 27
1.0
 37
0.0
 76
     0
330
2
331
31
1001
PLOTTRANSPARENCY
1071
        1
1001
ACAD_PSEXT
1000
\\Aqua-Srv00\Sharp_MX-3110N
1000
SHARP MX-3110N PCL6
1000
\\Aqua-Srv00
1000

1070
     0
  0
MATERIAL
  5
46
102
{ACAD_XDICTIONARY
360
47
102
}
102
{ACAD_REACTORS
330
10
102
}
330
10
100
AcDbMaterial
  1
ByBlock
 72
     0
 43
0.0208333333333333
 43
0.0
 43
0.0
 43
0.0
 43
0.0
 43
0.0208333333333333
 43
0.0
 43
0.0
 43
0.0
 43
0.0
 43
1.0
 43
0.0
 43
0.0
 43
0.0
 43
0.0
 43
1.0
 77
     0
 47
0.0208333333333333
 47
0.0
 47
0.0
 47
0.0
 47
0.0
 47
0.0208333333333333
 47
0.0
 47
0.0
 47
0.0
 47
0.0
 47
1.0
 47
0.0
 47
0.0
 47
0.0
 47
0.0
 47
1.0
171
     0
 49
0.0208333333333333
 49
0.0
 49
0.0
 49
0.0
 49
0.0
 49
0.0208333333333333
 49
0.0
 49
0.0
 49
0.0
 49
0.0
 49
1.0
 49
0.0
 49
0.0
 49
0.0
 49
0.0
 49
1.0
175
     0
142
0.0208333333333333
142
0.0
142
0.0
142
0.0
142
0.0
142
0.0208333333333333
142
0.0
142
0.0
142
0.0
142
0.0
142
1.0
142
0.0
142
0.0
142
0.0
142
0.0
142
1.0
179
     0
144
0.0208333333333333
144
0.0
144
0.0
144
0.0
144
0.0
144
0.0208333333333333
144
0.0
144
0.0
144
0.0
144
0.0
144
1.0
144
0.0
144
0.0
144
0.0
144
0.0
144
1.0
147
0.0208333333333333
147
0.0
147
0.0
147
0.0
147
0.0
147
0.0208333333333333
147
0.0
147
0.0
147
0.0
147
0.0
147
1.0
147
0.0
147
0.0
147
0.0
147
0.0
147
1.0
  0
MATERIAL
  5
3E
102
{ACAD_XDICTIONARY
360
3F
102
}
102
{ACAD_REACTORS
330
10
102
}
330
10
100
AcDbMaterial
  1
ByLayer
 72
     0
 43
0.0208333333333333
 43
0.0
 43
0.0
 43
0.0
 43
0.0
 43
0.0208333333333333
 43
0.0
 43
0.0
 43
0.0
 43
0.0
 43
1.0
 43
0.0
 43
0.0
 43
0.0
 43
0.0
 43
1.0
 77
     0
 47
0.0208333333333333
 47
0.0
 47
0.0
 47
0.0
 47
0.0
 47
0.0208333333333333
 47
0.0
 47
0.0
 47
0.0
 47
0.0
 47
1.0
 47
0.0
 47
0.0
 47
0.0
 47
0.0
 47
1.0
171
     0
 49
0.0208333333333333
 49
0.0
 49
0.0
 49
0.0
 49
0.0
 49
0.0208333333333333
 49
0.0
 49
0.0
 49
0.0
 49
0.0
 49
1.0
 49
0.0
 49
0.0
 49
0.0
 49
0.0
 49
1.0
175
     0
142
0.0208333333333333
142
0.0
142
0.0
142
0.0
142
0.0
142
0.0208333333333333
142
0.0
142
0.0
142
0.0
142
0.0
142
1.0
142
0.0
142
0.0
142
0.0
142
0.0
142
1.0
179
     0
144
0.0208333333333333
144
0.0
144
0.0
144
0.0
144
0.0
144
0.0208333333333333
144
0.0
144
0.0
144
0.0
144
0.0
144
1.0
144
0.0
144
0.0
144
0.0
144
0.0
144
1.0
147
0.0208333333333333
147
0.0
147
0.0
147
0.0
147
0.0
147
0.0208333333333333
147
0.0
147
0.0
147
0.0
147
0.0
147
1.0
147
0.0
147
0.0
147
0.0
147
0.0
147
1.0
  0
MATERIAL
  5
F
102
{ACAD_XDICTIONARY
360
11
102
}
102
{ACAD_REACTORS
330
10
102
}
330
10
100
AcDbMaterial
  1
Global
 72
     0
 43
0.0208333333333333
 43
0.0
 43
0.0
 43
0.0
 43
0.0
 43
0.0208333333333333
 43
0.0
 43
0.0
 43
0.0
 43
0.0
 43
1.0
 43
0.0
 43
0.0
 43
0.0
 43
0.0
 43
1.0
 77
     0
 47
0.0208333333333333
 47
0.0
 47
0.0
 47
0.0
 47
0.0
 47
0.0208333333333333
 47
0.0
 47
0.0
 47
0.0
 47
0.0
 47
1.0
 47
0.0
 47
0.0
 47
0.0
 47
0.0
 47
1.0
171
     0
 49
0.0208333333333333
 49
0.0
 49
0.0
 49
0.0
 49
0.0
 49
0.0208333333333333
 49
0.0
 49
0.0
 49
0.0
 49
0.0
 49
1.0
 49
0.0
 49
0.0
 49
0.0
 49
0.0
 49
1.0
175
     0
142
0.0208333333333333
142
0.0
142
0.0
142
0.0
142
0.0
142
0.0208333333333333
142
0.0
142
0.0
142
0.0
142
0.0
142
1.0
142
0.0
142
0.0
142
0.0
142
0.0
142
1.0
179
     0
144
0.0208333333333333
144
0.0
144
0.0
144
0.0
144
0.0
144
0.0208333333333333
144
0.0
144
0.0
144
0.0
144
0.0
144
1.0
144
0.0
144
0.0
144
0.0
144
0.0
144
1.0
147
0.0208333333333333
147
0.0
147
0.0
147
0.0
147
0.0
147
0.0208333333333333
147
0.0
147
0.0
147
0.0
147
0.0
147
1.0
147
0.0
147
0.0
147
0.0
147
0.0
147
1.0
  0
MLEADERSTYLE
  5
114
102
{ACAD_XDICTIONARY
360
1D2
102
}
102
{ACAD_REACTORS
330
51
330
112
330
153
330
154
330
155
330
156
330
157
330
158
330
159
330
15C
330
15D
330
15E
330
161
102
}
330
51
100
AcDbMLeaderStyle
170
     2
171
     1
172
     0
 90
        2
 40
0.0
 41
0.0
173
     1
 91
-1073741824
 92
       -2
290
     1
 42
0.05
291
     1
 43
0.1
  3

341
115
 44
0.125
300

342
B5
174
     1
178
     1
175
     0
176
     0
 93
-1073741824
 45
0.125
292
     0
297
     0
 46
5.0
 94
-1073741824
 47
1.0
 49
1.0
140
1.0
293
     1
141
0.0
294
     1
177
     0
142
1.0
295
     0
296
     0
143
0.125
1001
ACAD_MLEADERVER
1070
     2
  0
MLEADERSTYLE
  5
18F
102
{ACAD_XDICTIONARY
360
215
102
}
102
{ACAD_REACTORS
330
51
102
}
330
51
100
AcDbMLeaderStyle
170
     2
171
     1
172
     0
 90
        2
 40
0.0
 41
0.0
173
     1
 91
-1056964608
340
2C
 92
       -2
290
     1
 42
0.09
291
     1
 43
0.36
  3
Standard
 44
0.18
300

342
29
174
     1
178
     6
175
     1
176
     0
 93
-1056964608
 45
0.18
292
     0
297
     0
 46
0.18
 94
-1056964608
 47
1.0
 49
1.0
140
1.0
293
     1
141
0.0
294
     1
177
     0
142
1.0
295
     0
296
     0
143
0.125
1001
ACAD_MLEADERVER
1070
     2
  0
MLINESTYLE
  5
54
102
{ACAD_REACTORS
330
3C
102
}
330
3C
100
AcDbMlineStyle
  2
DUCT_PIPE
 70
   272
  3

 62
   256
 51
90.00021045914971
 52
90.00021045914971
 71
     2
 49
0.5
 62
   256
  6
BYBLOCK
 49
-0.5
 62
   256
  6
BYBLOCK
  0
MLINESTYLE
  5
59
102
{ACAD_REACTORS
330
3C
102
}
330
3C
100
AcDbMlineStyle
  2
STANDARD
 70
     0
  3

 62
   256
 51
90.0
 52
90.0
 71
     2
 49
0.5
 62
   256
  6
BYLAYER
 49
-0.5
 62
   256
  6
BYLAYER
  0
ACDBPLACEHOLDER
  5
8
102
{ACAD_REACTORS
330
9
102
}
330
9
  0
SCALE
  5
5A
102
{ACAD_REACTORS
330
4F
102
}
330
4F
100
AcDbScale
 70
     0
300
1:1
140
1.0
141
1.0
290
     1
  0
SCALE
  5
5B
102
{ACAD_REACTORS
330
4F
102
}
330
4F
100
AcDbScale
 70
     0
300
1:2
140
1.0
141
2.0
290
     0
  0
SCALE
  5
5C
102
{ACAD_REACTORS
330
4F
102
}
330
4F
100
AcDbScale
 70
     0
300
1:4
140
1.0
141
4.0
290
     0
  0
SCALE
  5
5D
102
{ACAD_REACTORS
330
4F
102
}
330
4F
100
AcDbScale
 70
     0
300
1:5
140
1.0
141
5.0
290
     0
  0
SCALE
  5
5E
102
{ACAD_REACTORS
330
4F
102
}
330
4F
100
AcDbScale
 70
     0
300
1:8
140
1.0
141
8.0
290
     0
  0
SCALE
  5
5F
102
{ACAD_REACTORS
330
4F
102
}
330
4F
100
AcDbScale
 70
     0
300
1:10
140
1.0
141
10.0
290
     0
  0
SCALE
  5
60
102
{ACAD_REACTORS
330
4F
102
}
330
4F
100
AcDbScale
 70
     0
300
1:16
140
1.0
141
16.0
290
     0
  0
SCALE
  5
61
102
{ACAD_REACTORS
330
4F
102
}
330
4F
100
AcDbScale
 70
     0
300
1:20
140
1.0
141
20.0
290
     0
  0
SCALE
  5
62
102
{ACAD_REACTORS
330
4F
102
}
330
4F
100
AcDbScale
 70
     0
300
1:30
140
1.0
141
30.0
290
     0
  0
SCALE
  5
63
102
{ACAD_REACTORS
330
4F
102
}
330
4F
100
AcDbScale
 70
     0
300
1:40
140
1.0
141
40.0
290
     0
  0
SCALE
  5
64
102
{ACAD_REACTORS
330
4F
102
}
330
4F
100
AcDbScale
 70
     0
300
1:50
140
1.0
141
50.0
290
     0
  0
SCALE
  5
65
102
{ACAD_REACTORS
330
4F
102
}
330
4F
100
AcDbScale
 70
     0
300
1:100
140
1.0
141
100.0
290
     0
  0
SCALE
  5
66
102
{ACAD_REACTORS
330
4F
102
}
330
4F
100
AcDbScale
 70
     0
300
2:1
140
2.0
141
1.0
290
     0
  0
SCALE
  5
67
102
{ACAD_REACTORS
330
4F
102
}
330
4F
100
AcDbScale
 70
     0
300
4:1
140
4.0
141
1.0
290
     0
  0
SCALE
  5
68
102
{ACAD_REACTORS
330
4F
102
}
330
4F
100
AcDbScale
 70
     0
300
8:1
140
8.0
141
1.0
290
     0
  0
SCALE
  5
69
102
{ACAD_REACTORS
330
4F
102
}
330
4F
100
AcDbScale
 70
     0
300
10:1
140
10.0
141
1.0
290
     0
  0
SCALE
  5
6A
102
{ACAD_REACTORS
330
4F
102
}
330
4F
100
AcDbScale
 70
     0
300
100:1
140
100.0
141
1.0
290
     0
  0
SCALE
  5
6B
102
{ACAD_REACTORS
330
4F
102
}
330
4F
100
AcDbScale
 70
     0
300
1/128" = 1'-0"
140
0.0078125
141
12.0
290
     0
  0
SCALE
  5
6C
102
{ACAD_REACTORS
330
4F
102
}
330
4F
100
AcDbScale
 70
     0
300
1/64" = 1'-0"
140
0.015625
141
12.0
290
     0
  0
SCALE
  5
6D
102
{ACAD_REACTORS
330
4F
102
}
330
4F
100
AcDbScale
 70
     0
300
1/32" = 1'-0"
140
0.03125
141
12.0
290
     0
  0
SCALE
  5
6E
102
{ACAD_REACTORS
330
4F
102
}
330
4F
100
AcDbScale
 70
     0
300
1/16" = 1'-0"
140
0.0625
141
12.0
290
     0
  0
SCALE
  5
6F
102
{ACAD_REACTORS
330
4F
102
}
330
4F
100
AcDbScale
 70
     0
300
3/32" = 1'-0"
140
0.09375
141
12.0
290
     0
  0
SCALE
  5
70
102
{ACAD_REACTORS
330
4F
102
}
330
4F
100
AcDbScale
 70
     0
300
1/8" = 1'-0"
140
0.125
141
12.0
290
     0
  0
SCALE
  5
71
102
{ACAD_REACTORS
330
4F
102
}
330
4F
100
AcDbScale
 70
     0
300
3/16" = 1'-0"
140
0.1875
141
12.0
290
     0
  0
SCALE
  5
72
102
{ACAD_REACTORS
330
4F
102
}
330
4F
100
AcDbScale
 70
     0
300
1/4" = 1'-0"
140
0.25
141
12.0
290
     0
  0
SCALE
  5
73
102
{ACAD_REACTORS
330
4F
102
}
330
4F
100
AcDbScale
 70
     0
300
3/8" = 1'-0"
140
0.375
141
12.0
290
     0
  0
SCALE
  5
74
102
{ACAD_REACTORS
330
4F
102
}
330
4F
100
AcDbScale
 70
     0
300
1/2" = 1'-0"
140
0.5
141
12.0
290
     0
  0
SCALE
  5
75
102
{ACAD_REACTORS
330
4F
102
}
330
4F
100
AcDbScale
 70
     0
300
3/4" = 1'-0"
140
0.75
141
12.0
290
     0
  0
SCALE
  5
76
102
{ACAD_REACTORS
330
4F
102
}
330
4F
100
AcDbScale
 70
     0
300
1" = 1'-0"
140
1.0
141
12.0
290
     0
  0
SCALE
  5
77
102
{ACAD_REACTORS
330
4F
102
}
330
4F
100
AcDbScale
 70
     0
300
1-1/2" = 1'-0"
140
1.5
141
12.0
290
     0
  0
SCALE
  5
78
102
{ACAD_REACTORS
330
4F
102
}
330
4F
100
AcDbScale
 70
     0
300
3" = 1'-0"
140
3.0
141
12.0
290
     0
  0
SCALE
  5
79
102
{ACAD_REACTORS
330
4F
102
}
330
4F
100
AcDbScale
 70
     0
300
6" = 1'-0"
140
6.0
141
12.0
290
     0
  0
SCALE
  5
7A
102
{ACAD_REACTORS
330
4F
102
}
330
4F
100
AcDbScale
 70
     0
300
1'-0" = 1'-0"
140
12.0
141
12.0
290
     0
  0
ACDBSECTIONVIEWSTYLE
  5
191
102
{ACAD_XDICTIONARY
360
217
102
}
102
{ACAD_REACTORS
330
190
102
}
330
190
100
AcDbModelDocViewStyle
 70
     0
  3
Imperial24
290
     0
100
AcDbSectionViewStyle
 70
     0
 71
     0
 90
       78
 71
     1
340
29
 62
   256
 40
0.24
340
0
340
0
 62
   256
 40
0.24
300
I, O, Q, S, X, Z
 40
0.48
 90
        3
 40
0.18
 90
        1
 71
     2
340
19
 90
       25
 62
   256
340
19
 90
       50
 62
   256
 40
0.24
 40
0.0
 40
0.24
 71
     3
340
29
 62
   256
 40
0.24
 90
        1
 40
0.75
 90
        1
300
%<\AcVar ViewType \f "%tc1">% %<\AcVar ViewSectionStartId>%-%<\AcVar ViewSectionEndId>%\PSCALE %<\AcVar ViewScale \f "%sn">%
 71
     4
 62
   256
 62
   257
300
ANSI31
 40
1.0
 90
        0
290
     0
290
     0
 90
        6
 40
0.0
 40
1.570796326794896
 40
0.2617993877991494
 40
1.308996938995747
 40
-0.2617993877991494
 40
1.832595714594046
  0
TABLESTYLE
  5
55
102
{ACAD_XDICTIONARY
360
56
102
}
102
{ACAD_REACTORS
330
50
102
}
330
50
100
AcDbTableStyle
  3
Standard
 70
     0
 71
     0
 40
0.06
 41
0.06
280
     0
281
     0
  7
STANDARD
140
0.18
170
     2
 62
     0
 63
     7
283
     0
274
    -2
284
     1
 64
     0
275
    -2
285
     1
 65
     0
276
    -2
286
     1
 66
     0
277
    -2
287
     1
 67
     0
278
    -2
288
     1
 68
     0
279
    -2
289
     1
 69
     0
  7
STANDARD
140
0.25
170
     5
 62
     0
 63
     7
283
     0
274
    -2
284
     1
 64
     0
275
    -2
285
     1
 65
     0
276
    -2
286
     1
 66
     0
277
    -2
287
     1
 67
     0
278
    -2
288
     1
 68
     0
279
    -2
289
     1
 69
     0
  7
STANDARD
140
0.18
170
     5
 62
     0
 63
     7
283
     0
274
    -2
284
     1
 64
     0
275
    -2
285
     1
 65
     0
276
    -2
286
     1
 66
     0
277
    -2
287
     1
 67
     0
278
    -2
288
     1
 68
     0
279
    -2
289
     1
 69
     0
  0
VISUALSTYLE
  5
32
102
{ACAD_XDICTIONARY
360
1BA
102
}
102
{ACAD_REACTORS
330
33
102
}
330
33
100
AcDbVisualStyle
  2
2dWireframe
 70
     4
 71
     0
 72
     2
 73
     0
 90
        0
 40
-0.6
 41
-30.0
 62
     5
 63
     7
421
 16777215
 74
     1
 91
        4
 64
     7
 65
   257
 75
     1
175
     1
 42
1.0
 92
        0
 66
   257
 43
1.0
 76
     1
 77
     6
 78
     2
 67
     7
 79
     5
170
     0
171
     0
290
     0
174
     0
 93
        1
 44
0.0
173
     0
291
     0
 45
0.0
1001
ACAD
1000
AcDbSavedByObjectVersion
1070
     0
  0
VISUALSTYLE
  5
17E
102
{ACAD_XDICTIONARY
360
1F3
102
}
102
{ACAD_REACTORS
330
33
102
}
330
33
100
AcDbVisualStyle
  2
Basic
 70
     7
 71
     1
 72
     0
 73
     1
 90
        0
 40
-0.6
 41
-30.0
 62
     5
 63
     7
421
 16777215
 74
     0
 91
        4
 64
     7
 65
   257
 75
     1
175
     1
 42
1.0
 92
        8
 66
     7
 43
1.0
 76
     1
 77
     6
 78
     2
 67
     7
 79
     5
170
     0
171
     0
290
     0
174
     0
 93
        1
 44
0.0
173
     0
291
     1
 45
0.0
1001
ACAD
1000
AcDbSavedByObjectVersion
1070
     0
  0
VISUALSTYLE
  5
182
102
{ACAD_XDICTIONARY
360
1FB
102
}
102
{ACAD_REACTORS
330
33
102
}
330
33
100
AcDbVisualStyle
  2
Brighten
 70
    12
 71
     2
 72
     2
 73
     0
 90
        0
 40
-0.6
 41
-30.0
 62
     5
 63
     7
421
 16777215
 74
     1
 91
        4
 64
     7
 65
   257
 75
     1
175
     1
 42
1.0
 92
        8
 66
     7
 43
1.0
 76
     1
 77
     6
 78
     2
 67
     7
 79
     5
170
     0
171
     0
290
     0
174
     0
 93
        1
 44
50.0
173
     0
291
     1
 45
0.0
1001
ACAD
1000
AcDbSavedByObjectVersion
1070
     0
  0
VISUALSTYLE
  5
186
102
{ACAD_XDICTIONARY
360
203
102
}
102
{ACAD_REACTORS
330
33
102
}
330
33
100
AcDbVisualStyle
  2
ColorChange
 70
    16
 71
     2
 72
     2
 73
     3
 90
        0
 40
-0.6
 41
-30.0
 62
     5
 63
     8
421
  8421504
 74
     1
 91
        4
 64
     7
 65
   257
 75
     1
175
     1
 42
1.0
 92
        8
 66
     8
424
  8421504
 43
1.0
 76
     1
 77
     6
 78
     2
 67
     7
 79
     5
170
     0
171
     0
290
     0
174
     0
 93
        1
 44
0.0
173
     0
291
     1
 45
0.0
1001
ACAD
1000
AcDbSavedByObjectVersion
1070
     0
  0
VISUALSTYLE
  5
180
102
{ACAD_XDICTIONARY
360
1F7
102
}
102
{ACAD_REACTORS
330
33
102
}
330
33
100
AcDbVisualStyle
  2
Conceptual
 70
     9
 71
     3
 72
     2
 73
     0
 90
        0
 40
-0.6
 41
-30.0
 62
     5
 63
     7
421
 16777215
 74
     2
 91
        2
 64
     7
 65
   257
 75
     1
175
     1
 42
179.0
 92
        8
 66
     7
 43
1.0
 76
     1
 77
     6
 78
     2
 67
     7
 79
     3
170
     0
171
     0
290
     0
174
     0
 93
        1
 44
0.0
173
     0
291
     0
 45
0.0
1001
ACAD
1000
AcDbSavedByObjectVersion
1070
     0
  0
VISUALSTYLE
  5
181
102
{ACAD_XDICTIONARY
360
1F9
102
}
102
{ACAD_REACTORS
330
33
102
}
330
33
100
AcDbVisualStyle
  2
Dim
 70
    11
 71
     2
 72
     2
 73
     0
 90
        0
 40
-0.6
 41
-30.0
 62
     5
 63
     7
421
 16777215
 74
     1
 91
        4
 64
     7
 65
   257
 75
     1
175
     1
 42
1.0
 92
        8
 66
     7
 43
1.0
 76
     1
 77
     6
 78
     2
 67
     7
 79
     5
170
     0
171
     0
290
     0
174
     0
 93
        1
 44
-50.0
173
     0
291
     1
 45
0.0
1001
ACAD
1000
AcDbSavedByObjectVersion
1070
     0
  0
VISUALSTYLE
  5
18E
102
{ACAD_XDICTIONARY
360
213
102
}
102
{ACAD_REACTORS
330
33
102
}
330
33
100
AcDbVisualStyle
  2
EdgeColorOff
 70
    22
 71
     2
 72
     2
 73
     0
 90
        0
 40
-0.6
 41
-30.0
 62
     5
 63
     7
421
 16777215
 74
     1
 91
        4
 64
     7
 65
   257
 75
     1
175
     1
 42
1.0
 92
        8
 66
     7
 43
1.0
 76
     1
 77
     6
 78
     2
 67
     7
 79
     5
170
     0
171
     0
290
     0
174
     0
 93
        1
 44
0.0
173
     0
291
     1
 45
0.0
1001
ACAD
1000
AcDbSavedByObjectVersion
1070
     0
  0
VISUALSTYLE
  5
185
102
{ACAD_XDICTIONARY
360
201
102
}
102
{ACAD_REACTORS
330
33
102
}
330
33
100
AcDbVisualStyle
  2
Facepattern
 70
    15
 71
     2
 72
     2
 73
     0
 90
        0
 40
-0.6
 41
-30.0
 62
     5
 63
     7
421
 16777215
 74
     1
 91
        4
 64
     7
 65
   257
 75
     1
175
     1
 42
1.0
 92
        8
 66
     7
 43
1.0
 76
     1
 77
     6
 78
     2
 67
     7
 79
     5
170
     0
171
     0
290
     0
174
     0
 93
        1
 44
0.0
173
     0
291
     1
 45
0.0
1001
ACAD
1000
AcDbSavedByObjectVersion
1070
     0
  0
VISUALSTYLE
  5
17A
102
{ACAD_XDICTIONARY
360
1EB
102
}
102
{ACAD_REACTORS
330
33
102
}
330
33
100
AcDbVisualStyle
  2
Flat
 70
     0
 71
     2
 72
     1
 73
     1
 90
        2
 40
-0.6
 41
30.0
 62
     5
 63
     7
421
 16777215
 74
     0
 91
        0
 64
     7
 65
   257
 75
     1
175
     1
 42
1.0
 92
        8
 66
     7
 43
1.0
 76
     1
 77
     6
 78
     2
 67
     7
 79
     5
170
     0
171
     0
290
     0
174
     0
 93
       13
 44
0.0
173
     0
291
     1
 45
0.0
1001
ACAD
1000
AcDbSavedByObjectVersion
1070
     0
  0
VISUALSTYLE
  5
17B
102
{ACAD_XDICTIONARY
360
1ED
102
}
102
{ACAD_REACTORS
330
33
102
}
330
33
100
AcDbVisualStyle
  2
FlatWithEdges
 70
     1
 71
     2
 72
     1
 73
     1
 90
        2
 40
-0.6
 41
30.0
 62
     5
 63
     7
421
 16777215
 74
     1
 91
        0
 64
     7
 65
   257
 75
     1
175
     1
 42
1.0
 92
        0
 66
   257
 43
1.0
 76
     1
 77
     6
 78
     2
 67
     7
 79
     5
170
     0
171
     0
290
     0
174
     0
 93
       13
 44
0.0
173
     0
291
     1
 45
0.0
1001
ACAD
1000
AcDbSavedByObjectVersion
1070
     0
  0
VISUALSTYLE
  5
17C
102
{ACAD_XDICTIONARY
360
1EF
102
}
102
{ACAD_REACTORS
330
33
102
}
330
33
100
AcDbVisualStyle
  2
Gouraud
 70
     2
 71
     2
 72
     2
 73
     1
 90
        2
 40
-0.6
 41
30.0
 62
     5
 63
     7
421
 16777215
 74
     0
 91
        0
 64
     7
 65
   257
 75
     1
175
     1
 42
1.0
 92
        0
 66
     7
 43
1.0
 76
     1
 77
     6
 78
     2
 67
     7
 79
     5
170
     0
171
     0
290
     0
174
     0
 93
       13
 44
0.0
173
     0
291
     1
 45
0.0
1001
ACAD
1000
AcDbSavedByObjectVersion
1070
     0
  0
VISUALSTYLE
  5
17D
102
{ACAD_XDICTIONARY
360
1F1
102
}
102
{ACAD_REACTORS
330
33
102
}
330
33
100
AcDbVisualStyle
  2
GouraudWithEdges
 70
     3
 71
     2
 72
     2
 73
     1
 90
        2
 40
-0.6
 41
30.0
 62
     5
 63
     7
421
 16777215
 74
     1
 91
        0
 64
     7
 65
   257
 75
     1
175
     1
 42
1.0
 92
        0
 66
   257
 43
1.0
 76
     1
 77
     6
 78
     2
 67
     7
 79
     5
170
     0
171
     0
290
     0
174
     0
 93
       13
 44
0.0
173
     0
291
     1
 45
0.0
1001
ACAD
1000
AcDbSavedByObjectVersion
1070
     0
  0
VISUALSTYLE
  5
17F
102
{ACAD_XDICTIONARY
360
1F5
102
}
102
{ACAD_REACTORS
330
33
102
}
330
33
100
AcDbVisualStyle
  2
Hidden
 70
     6
 71
     1
 72
     2
 73
     2
 90
        0
 40
-0.6
 41
-30.0
 62
     5
 63
     7
421
 16777215
 74
     2
 91
        2
 64
     7
 65
   257
 75
     2
175
     1
 42
40.0
 92
        0
 66
   257
 43
1.0
 76
     1
 77
     6
 78
     2
 67
     7
 79
     3
170
     0
171
     0
290
     0
174
     0
 93
        1
 44
0.0
173
     0
291
     0
 45
0.0
1001
ACAD
1000
AcDbSavedByObjectVersion
1070
     0
  0
VISUALSTYLE
  5
18C
102
{ACAD_XDICTIONARY
360
20F
102
}
102
{ACAD_REACTORS
330
33
102
}
330
33
100
AcDbVisualStyle
  2
JitterOff
 70
    20
 71
     2
 72
     2
 73
     0
 90
        0
 40
-0.6
 41
-30.0
 62
     5
 63
     7
421
 16777215
 74
     1
 91
        4
 64
     7
 65
   257
 75
     1
175
     1
 42
1.0
 92
       10
 66
     7
 43
1.0
 76
     1
 77
     6
 78
     2
 67
     7
 79
     5
170
     0
171
     0
290
     0
174
     0
 93
        1
 44
0.0
173
     0
291
     1
 45
0.0
1001
ACAD
1000
AcDbSavedByObjectVersion
1070
     0
  0
VISUALSTYLE
  5
184
102
{ACAD_XDICTIONARY
360
1FF
102
}
102
{ACAD_REACTORS
330
33
102
}
330
33
100
AcDbVisualStyle
  2
Linepattern
 70
    14
 71
     2
 72
     2
 73
     0
 90
        0
 40
-0.6
 41
-30.0
 62
     5
 63
     7
421
 16777215
 74
     1
 91
        4
 64
     7
 65
   257
 75
     7
175
     7
 42
1.0
 92
        8
 66
     7
 43
1.0
 76
     1
 77
     6
 78
     2
 67
     7
 79
     5
170
     0
171
     0
290
     0
174
     0
 93
        1
 44
0.0
173
     0
291
     1
 45
0.0
1001
ACAD
1000
AcDbSavedByObjectVersion
1070
     0
  0
VISUALSTYLE
  5
18D
102
{ACAD_XDICTIONARY
360
211
102
}
102
{ACAD_REACTORS
330
33
102
}
330
33
100
AcDbVisualStyle
  2
OverhangOff
 70
    21
 71
     2
 72
     2
 73
     0
 90
        0
 40
-0.6
 41
-30.0
 62
     5
 63
     7
421
 16777215
 74
     1
 91
        4
 64
     7
 65
   257
 75
     1
175
     1
 42
1.0
 92
        9
 66
     7
 43
1.0
 76
     1
 77
     6
 78
     2
 67
     7
 79
     5
170
     0
171
     0
290
     0
174
     0
 93
        1
 44
0.0
173
     0
291
     1
 45
0.0
1001
ACAD
1000
AcDbSavedByObjectVersion
1070
     0
  0
VISUALSTYLE
  5
57
102
{ACAD_XDICTIONARY
360
1BF
102
}
102
{ACAD_REACTORS
330
33
102
}
330
33
100
AcDbVisualStyle
  2
Realistic
 70
     8
 71
     2
 72
     2
 73
     0
 90
        0
 40
-0.6
 41
-30.0
 62
     5
 63
     7
421
 16777215
 74
     1
 91
        0
 64
     7
 65
   257
 75
     1
175
     1
 42
1.0
 92
        8
 66
     8
424
  7895160
 43
1.0
 76
     1
 77
     6
 78
     2
 67
     7
 79
     5
170
     0
171
     0
290
     0
174
     0
 93
       13
 44
0.0
173
     0
291
     0
 45
0.0
1001
ACAD
1000
AcDbSavedByObjectVersion
1070
     0
  0
VISUALSTYLE
  5
18B
102
{ACAD_XDICTIONARY
360
20D
102
}
102
{ACAD_REACTORS
330
33
102
}
330
33
100
AcDbVisualStyle
  2
Shaded
 70
    27
 71
     2
 72
     2
 73
     1
 90
        2
 40
-0.6
 41
30.0
 62
     5
 63
     7
421
 16777215
 74
     0
 91
        4
 64
     7
 65
   257
 75
     1
175
     1
 42
1.0
 92
        8
 66
   257
 43
1.0
 76
     1
 77
     6
 78
     2
 67
     8
425
  7895160
 79
     3
170
     0
171
     0
290
     0
174
     0
 93
        5
 44
0.0
173
     0
291
     0
 45
0.0
1001
ACAD
1000
AcDbSavedByObjectVersion
1070
     0
  0
VISUALSTYLE
  5
18A
102
{ACAD_XDICTIONARY
360
20B
102
}
102
{ACAD_REACTORS
330
33
102
}
330
33
100
AcDbVisualStyle
  2
Shaded with edges
 70
    26
 71
     2
 72
     2
 73
     1
 90
        2
 40
-0.6
 41
30.0
 62
     5
 63
     7
421
 16777215
 74
     1
 91
       10
 64
     7
 65
   257
 75
     2
175
     1
 42
1.0
 92
        8
 66
   257
 43
1.0
 76
     1
 77
     6
 78
     2
 67
     7
 79
     3
170
     0
171
     0
290
     0
174
     0
 93
        5
 44
0.0
173
     0
291
     0
 45
0.0
1001
ACAD
1000
AcDbSavedByObjectVersion
1070
     0
  0
VISUALSTYLE
  5
187
102
{ACAD_XDICTIONARY
360
205
102
}
102
{ACAD_REACTORS
330
33
102
}
330
33
100
AcDbVisualStyle
  2
Shades of Gray
 70
    23
 71
     2
 72
     2
 73
     3
 90
        0
 40
-0.6
 41
-30.0
 62
     5
 63
     7
421
 16777215
 74
     2
 91
        2
 64
     7
 65
     7
 75
     1
175
     1
 42
40.0
 92
        8
 66
     7
 43
1.0
 76
     1
 77
     6
 78
     2
 67
     7
 79
     3
170
     0
171
     0
290
     0
174
     0
 93
        1
 44
0.0
173
     0
291
     0
 45
0.0
1001
ACAD
1000
AcDbSavedByObjectVersion
1070
     0
  0
VISUALSTYLE
  5
188
102
{ACAD_XDICTIONARY
360
207
102
}
102
{ACAD_REACTORS
330
33
102
}
330
33
100
AcDbVisualStyle
  2
Sketchy
 70
    24
 71
     1
 72
     2
 73
     2
 90
        0
 40
-0.6
 41
-30.0
 62
     5
 63
     7
421
 16777215
 74
     2
 91
        2
 64
     7
 65
     7
 75
     1
175
     1
 42
40.0
 92
       11
 66
     7
 43
1.0
 76
     1
 77
     6
 78
     2
 67
     7
 79
     6
170
     0
171
     0
290
     0
174
     0
 93
        1
 44
0.0
173
     0
291
     0
 45
0.0
1001
ACAD
1000
AcDbSavedByObjectVersion
1070
     0
  0
VISUALSTYLE
  5
183
102
{ACAD_XDICTIONARY
360
1FD
102
}
102
{ACAD_REACTORS
330
33
102
}
330
33
100
AcDbVisualStyle
  2
Thicken
 70
    13
 71
     2
 72
     2
 73
     0
 90
        0
 40
-0.6
 41
-30.0
 62
     5
 63
     7
421
 16777215
 74
     1
 91
        4
 64
     7
 65
   257
 75
     1
175
     1
 42
1.0
 92
       12
 66
     7
 43
1.0
 76
     1
 77
     6
 78
     2
 67
     7
 79
     5
170
     0
171
     0
290
     0
174
     0
 93
        1
 44
0.0
173
     0
291
     1
 45
0.0
1001
ACAD
1000
AcDbSavedByObjectVersion
1070
     0
  0
VISUALSTYLE
  5
58
102
{ACAD_XDICTIONARY
360
1C1
102
}
102
{ACAD_REACTORS
330
33
102
}
330
33
100
AcDbVisualStyle
  2
Wireframe
 70
     5
 71
     0
 72
     2
 73
     0
 90
        0
 40
-0.6
 41
-30.0
 62
     5
 63
     7
421
 16777215
 74
     1
 91
        4
 64
     7
 65
   257
 75
     1
175
     1
 42
1.0
 92
        0
 66
   257
 43
1.0
 76
     1
 77
     6
 78
     2
 67
     7
 79
     3
170
     0
171
     0
290
     0
174
     0
 93
        1
 44
0.0
173
     0
291
     0
 45
0.0
1001
ACAD
1000
AcDbSavedByObjectVersion
1070
     0
  0
VISUALSTYLE
  5
189
102
{ACAD_XDICTIONARY
360
209
102
}
102
{ACAD_REACTORS
330
33
102
}
330
33
100
AcDbVisualStyle
  2
X-Ray
 70
    25
 71
     2
 72
     2
 73
     1
 90
        1
 40
0.5
 41
-30.0
 62
     5
 63
     7
421
 16777215
 74
     1
 91
        0
 64
     7
 65
   257
 75
     1
175
     1
 42
1.0
 92
        8
 66
     7
 43
1.0
 76
     1
 77
     6
 78
     2
 67
     7
 79
     3
170
     0
171
     0
290
     0
174
     0
 93
       13
 44
0.0
173
     0
291
     0
 45
0.0
1001
ACAD
1000
AcDbSavedByObjectVersion
1070
     0
  0
DICTIONARYVAR
  5
176
102
{ACAD_REACTORS
330
16F
102
}
330
16F
100
DictionaryVariables
280
     0
  1
1:1
  0
DICTIONARYVAR
  5
171
102
{ACAD_REACTORS
330
16F
102
}
330
16F
100
DictionaryVariables
280
     0
  1
STANDARD
  0
DICTIONARYVAR
  5
170
102
{ACAD_REACTORS
330
16F
102
}
330
16F
100
DictionaryVariables
280
     0
  1
STANDARD
  0
DICTIONARYVAR
  5
172
102
{ACAD_REACTORS
330
16F
102
}
330
16F
100
DictionaryVariables
280
     0
  1
Imperial24
  0
DICTIONARYVAR
  5
173
102
{ACAD_REACTORS
330
16F
102
}
330
16F
100
DictionaryVariables
280
     0
  1
Imperial24
  0
DICTIONARYVAR
  5
1AC
102
{ACAD_REACTORS
330
16F
102
}
330
16F
100
DictionaryVariables
280
     0
  1
0
  0
DICTIONARYVAR
  5
178
102
{ACAD_REACTORS
330
16F
102
}
330
16F
100
DictionaryVariables
280
     0
  1
15
  0
DICTIONARYVAR
  5
177
102
{ACAD_REACTORS
330
16F
102
}
330
16F
100
DictionaryVariables
280
     0
  1
0
  0
DICTIONARYVAR
  5
175
102
{ACAD_REACTORS
330
16F
102
}
330
16F
100
DictionaryVariables
280
     0
  1
0
  0
DICTIONARYVAR
  5
174
102
{ACAD_REACTORS
330
16F
102
}
330
16F
100
DictionaryVariables
280
     0
  1
0
  0
DICTIONARY
  5
1B8
102
{ACAD_REACTORS
330
1B6
102
}
330
1B6
100
AcDbDictionary
281
     1
  0
DICTIONARY
  5
1B7
102
{ACAD_REACTORS
330
1B6
102
}
330
1B6
100
AcDbDictionary
281
     1
  3
140702769038480
350
1B1
  3
140702769038496
350
1B2
  3
140702769038512
350
1B3
  3
140702769038528
350
1B4
  3
140702769038544
350
1B5
  0
XRECORD
  5
1A0
102
{ACAD_REACTORS
330
26
102
}
330
26
100
AcDbXrecord
280
     1
  1
_0100-
  1
*0100-*
  1
*
  1
*
 70
     0
  1
*
  1
*
  0
XRECORD
  5
19F
102
{ACAD_REACTORS
330
26
102
}
330
26
100
AcDbXrecord
280
     1
  1
_0280-
  1
*0280-*
  1
*
  1
*
 70
     0
  1
*
  1
*
  0
XRECORD
  5
1A2
102
{ACAD_REACTORS
330
26
102
}
330
26
100
AcDbXrecord
280
     1
  1
_Add Alternate
  1
*add*alt*
  1
*
  1
*
 70
     0
  1
*
  1
*
  0
XRECORD
  5
1A3
102
{ACAD_REACTORS
330
26
102
}
330
26
100
AcDbXrecord
280
     1
  1
_Bid Alternate
  1
*bid*alt*
  1
*
  1
*
 70
     0
  1
*
  1
*
  0
XRECORD
  5
1A5
102
{ACAD_REACTORS
330
26
102
}
330
26
100
AcDbXrecord
280
     1
  1
_Color 253
  1
*
  1
253
  1
*
 70
     0
  1
*
  1
*
  0
XRECORD
  5
1A1
102
{ACAD_REACTORS
330
26
102
}
330
26
100
AcDbXrecord
280
     1
  1
_Color 8
  1
*
  1
8
  1
*
 70
     0
  1
*
  1
*
  0
XRECORD
  5
1A4
102
{ACAD_REACTORS
330
26
102
}
330
26
100
AcDbXrecord
280
     1
  1
_Color 84
  1
*
  1
84
  1
*
 70
     0
  1
*
  1
*
  0
XRECORD
  5
1AB
102
{ACAD_REACTORS
330
26
102
}
330
26
100
AcDbXrecord
280
     1
  1
_Contours
  1
*contour*,*cont-*,*cp cont*,*p-cont*
  1
*
  1
*
 70
     0
  1
*
  1
*
  0
XRECORD
  5
1A6
102
{ACAD_REACTORS
330
26
102
}
330
26
100
AcDbXrecord
280
     1
  1
_Demo
  1
*demo*
  1
*
  1
*
 70
     0
  1
*
  1
*
  0
XRECORD
  5
1A7
102
{ACAD_REACTORS
330
26
102
}
330
26
100
AcDbXrecord
280
     1
  1
_Existing
  1
*exist*,*ex*
  1
*
  1
*
 70
     0
  1
*
  1
*
  0
XRECORD
  5
1AA
102
{ACAD_REACTORS
330
26
102
}
330
26
100
AcDbXrecord
280
     1
  1
_Hardscape
  1
*sidewalk*,*sw*,*curb*,*walk*,*-lip*,*tbc*
  1
*
  1
*
 70
     0
  1
*
  1
*
  0
XRECORD
  5
19D
102
{ACAD_REACTORS
330
26
102
}
330
26
100
AcDbXrecord
280
     1
  1
_IDT
  1
IDT_*
  1
*
  1
*
 70
     0
  1
*
  1
*
  0
XRECORD
  5
19E
102
{ACAD_REACTORS
330
26
102
}
330
26
100
AcDbXrecord
280
     1
  1
_Mask
  1
*MASK*
  1
*
  1
*
 70
     0
  1
*
  1
*
  0
XRECORD
  5
19C
102
{ACAD_REACTORS
330
26
102
}
330
26
100
AcDbXrecord
280
     1
  1
_NoXref
  1
~*|*
  1
*
  1
*
 70
     0
  1
*
  1
*
  0
XRECORD
  5
1A8
102
{ACAD_REACTORS
330
26
102
}
330
26
100
AcDbXrecord
280
     1
  1
_Row
  1
*row*
  1
*
  1
*
 70
     0
  1
*
  1
*
  0
XRECORD
  5
1A9
102
{ACAD_REACTORS
330
26
102
}
330
26
100
AcDbXrecord
280
     1
  1
_Utility
  1
*ut-*,*utility*,*wat*
  1
*
  1
*
 70
     0
  1
*
  1
*
  0
BLOCKLINEARPARAMETER
  5
C6
330
C5
100
AcDbEvalExpr
 90
       94
 98
       31
 99
       83
100
AcDbBlockElement
300
Linear
 98
       25
 99
      104
1071
        0
100
AcDbBlockParameter
280
     1
281
     0
100
AcDbBlock2PtParameter
1010
1.185834988647621
1020
0.7358094721253014
1030
0.0
1011
7.68583498864762
1021
0.7358094721253014
1031
0.0
170
     4
 91
        0
 91
       95
 91
        0
 91
        0
171
     0
172
     0
173
     1
 94
       95
303
DisplacementX
174
     1
 95
       95
304
DisplacementY
177
     0
100
AcDbBlockLinearParameter
305
Distance
306

140
0.4467710221744489
307

 96
        1
141
0.0
142
0.0
143
0.0
175
     0
1001
ACAUTHENVIRON
1010
6.281442760423737
1020
1.146972722523634
1030
0.0
  0
BLOCKLINEARGRIP
  5
C8
330
C5
100
AcDbEvalExpr
 90
       95
 98
       31
 99
       83
100
AcDbBlockElement
300
End Grip
 98
       25
 99
      104
1071
        0
100
AcDbBlockGrip
 91
       96
 92
       97
1010
7.68583498864762
1020
0.7358094721253014
1030
0.0
280
     1
 93
       -1
100
AcDbBlockLinearGrip
140
6.499999999999999
141
0.0
142
0.0
  0
BLOCKGRIPLOCATIONCOMPONENT
  5
C9
330
C5
100
AcDbEvalExpr
 90
       96
 98
       31
 99
       83
  1

 70
    40
140
1.797693134862314E+99
100
AcDbBlockGripExpr
 91
       94
300
UpdatedEndX
  0
BLOCKGRIPLOCATIONCOMPONENT
  5
CA
330
C5
100
AcDbEvalExpr
 90
       97
 98
       31
 99
       83
  1

 70
    40
140
1.797693134862314E+99
100
AcDbBlockGripExpr
 91
       94
300
UpdatedEndY
  0
BLOCKSTRETCHACTION
  5
CB
330
C5
100
AcDbEvalExpr
 90
      101
 98
       31
 99
       83
100
AcDbBlockElement
300
Width of Detail Label
 98
       25
 99
      104
1071
        0
100
AcDbBlockAction
 70
     1
 91
       84
 71
     3
330
C8
330
D3
330
D4
1010
6.354099035747804
1020
0.8904686700187992
1030
0.0
100
AcDbBlockStretchAction
 92
       94
301
EndXDelta
 93
       94
302
EndYDelta
 72
     2
1011
8.140667050423285
1021
0.1782017419132522
1011
7.07335512639052
1021
1.265659163177787
 73
     2
331
D3
 74
     1
 94
        1
331
D4
 74
     2
 94
        0
 94
        1
 75
     0
140
1.0
141
0.0
280
     0
  0
XRECORD
  5
1C7
102
{ACAD_REACTORS
330
1C6
102
}
330
1C6
100
AcDbXrecord
280
     1
1070
     0
1070
     1
1070
     0
  0
XRECORD
  5
1CF
102
{ACAD_REACTORS
330
1CE
102
}
330
1CE
100
AcDbXrecord
280
     1
1070
     0
1070
     1
1070
     0
  0
XRECORD
  5
1CC
102
{ACAD_REACTORS
330
1CB
102
}
330
1CB
100
AcDbXrecord
280
     1
1070
     0
1070
     1
1070
     0
  0
XRECORD
  5
1D5
102
{ACAD_REACTORS
330
1D4
102
}
330
1D4
100
AcDbXrecord
280
     1
1070
     0
1070
     1
1070
     1
  0
XRECORD
  5
1C4
102
{ACAD_REACTORS
330
1C3
102
}
330
1C3
100
AcDbXrecord
280
     1
1070
     0
1070
     1
1070
     0
  0
XRECORD
  5
1C9
102
{ACAD_REACTORS
330
1C8
102
}
330
1C8
100
AcDbXrecord
280
     1
1070
     0
1070
     1
1070
     0
  0
FIELD
  5
AD
102
{ACAD_REACTORS
330
AC
102
}
330
AC
100
AcDbField
  1
_text
  2
%<\_FldIdx 0>% - %<\_FldIdx 1>%
 90
        2
360
AE
360
AF
 97
        0
  4

 91
       63
 92
        0
 94
        9
 95
        2
 96
        0
300

 93
        2
  6
ACFD_FIELDTEXT_ATTDEF
 90
        1
 91
        1
  6
ACFD_FIELDTEXT_CHECKSUM
 90
        2
140
155648.0
  7
ACFD_FIELD_VALUE
 90
        0
 91
        0
301

 98
        0
  0
FIELD
  5
BA
102
{ACAD_REACTORS
330
B9
102
}
330
B9
100
AcDbField
  1
_text
  2
%<\_FldIdx 0>% - %<\_FldIdx 1>%
 90
        2
360
BB
360
BC
 97
        0
  4

 91
       63
 92
        0
 94
        9
 95
        2
 96
        0
300

 93
        1
  6
ACFD_FIELDTEXT_CHECKSUM
 90
        2
140
13666.0
  7
ACFD_FIELD_VALUE
 90
        0
 91
        0
301

 98
        0
  0
ACDB_BLOCKREPRESENTATION_DATA
  5
C2
102
{ACAD_REACTORS
330
C1
102
}
330
C1
100
AcDbBlockRepresentationData
 70
     1
340
C3
  0
DICTIONARY
  5
D9
102
{ACAD_REACTORS
330
C1
102
}
330
C1
100
AcDbDictionary
280
     1
281
     1
  3
ACAD_ENHANCEDBLOCKDATA
360
DA
  0
DICTIONARY
  5
219
330
193
100
AcDbDictionary
280
     1
281
     1
  3
ACAD_XREC_ROUNDTRIP
360
21A
  0
DICTIONARY
  5
23
330
22
100
AcDbDictionary
280
     1
281
     1
  0
DICTIONARY
  5
47
330
46
100
AcDbDictionary
280
     1
281
     1
  3
ACAD_XREC_ROUNDTRIP
360
1BD
  3
BUMPTILE
360
48
  3
DIFFUSETILE
360
49
  3
OPACITYTILE
360
4A
  3
REFLECTIONTILE
360
4B
  3
REFRACTIONTILE
360
4C
  3
SPECULARTILE
360
4D
  0
DICTIONARY
  5
3F
330
3E
100
AcDbDictionary
280
     1
281
     1
  3
ACAD_XREC_ROUNDTRIP
360
1BC
  3
BUMPTILE
360
40
  3
DIFFUSETILE
360
41
  3
OPACITYTILE
360
42
  3
REFLECTIONTILE
360
43
  3
REFRACTIONTILE
360
44
  3
SPECULARTILE
360
45
  0
DICTIONARY
  5
11
330
F
100
AcDbDictionary
280
     1
281
     1
  3
ACAD_XREC_ROUNDTRIP
360
1B9
  3
BUMPTILE
360
12
  3
DIFFUSETILE
360
13
  3
FBXASSET
360
14
  3
OPACITYTILE
360
15
  3
REFLECTIONTILE
360
16
  3
REFRACTIONTILE
360
17
  3
SPECULARTILE
360
18
  0
DICTIONARY
  5
1D2
330
114
100
AcDbDictionary
280
     1
281
     1
  3
ACAD_XREC_ROUNDTRIP
360
1D3
  0
DICTIONARY
  5
215
330
18F
100
AcDbDictionary
280
     1
281
     1
  3
ACAD_XREC_ROUNDTRIP
360
216
  0
DICTIONARY
  5
217
330
191
100
AcDbDictionary
280
     1
281
     1
  3
ACAD_XREC_ROUNDTRIP
360
218
  0
DICTIONARY
  5
56
330
55
100
AcDbDictionary
280
     1
281
     1
  3
ACAD_ROUNDTRIP_2008_TABLESTYLE_CELLSTYLEMAP
360
1AD
  3
ACAD_XREC_ROUNDTRIP
360
1BE
  0
DICTIONARY
  5
1BA
330
32
100
AcDbDictionary
280
     1
281
     1
  3
ACAD_XREC_ROUNDTRIP
360
1BB
  0
DICTIONARY
  5
1F3
330
17E
100
AcDbDictionary
280
     1
281
     1
  3
ACAD_XREC_ROUNDTRIP
360
1F4
  0
DICTIONARY
  5
1FB
330
182
100
AcDbDictionary
280
     1
281
     1
  3
ACAD_XREC_ROUNDTRIP
360
1FC
  0
DICTIONARY
  5
203
330
186
100
AcDbDictionary
280
     1
281
     1
  3
ACAD_XREC_ROUNDTRIP
360
204
  0
DICTIONARY
  5
1F7
330
180
100
AcDbDictionary
280
     1
281
     1
  3
ACAD_XREC_ROUNDTRIP
360
1F8
  0
DICTIONARY
  5
1F9
330
181
100
AcDbDictionary
280
     1
281
     1
  3
ACAD_XREC_ROUNDTRIP
360
1FA
  0
DICTIONARY
  5
213
330
18E
100
AcDbDictionary
280
     1
281
     1
  3
ACAD_XREC_ROUNDTRIP
360
214
  0
DICTIONARY
  5
201
330
185
100
AcDbDictionary
280
     1
281
     1
  3
ACAD_XREC_ROUNDTRIP
360
202
  0
DICTIONARY
  5
1EB
330
17A
100
AcDbDictionary
280
     1
281
     1
  3
ACAD_XREC_ROUNDTRIP
360
1EC
  0
DICTIONARY
  5
1ED
330
17B
100
AcDbDictionary
280
     1
281
     1
  3
ACAD_XREC_ROUNDTRIP
360
1EE
  0
DICTIONARY
  5
1EF
330
17C
100
AcDbDictionary
280
     1
281
     1
  3
ACAD_XREC_ROUNDTRIP
360
1F0
  0
DICTIONARY
  5
1F1
330
17D
100
AcDbDictionary
280
     1
281
     1
  3
ACAD_XREC_ROUNDTRIP
360
1F2
  0
DICTIONARY
  5
1F5
330
17F
100
AcDbDictionary
280
     1
281
     1
  3
ACAD_XREC_ROUNDTRIP
360
1F6
  0
DICTIONARY
  5
20F
330
18C
100
AcDbDictionary
280
     1
281
     1
  3
ACAD_XREC_ROUNDTRIP
360
210
  0
DICTIONARY
  5
1FF
330
184
100
AcDbDictionary
280
     1
281
     1
  3
ACAD_XREC_ROUNDTRIP
360
200
  0
DICTIONARY
  5
211
330
18D
100
AcDbDictionary
280
     1
281
     1
  3
ACAD_XREC_ROUNDTRIP
360
212
  0
DICTIONARY
  5
1BF
330
57
100
AcDbDictionary
280
     1
281
     1
  3
ACAD_XREC_ROUNDTRIP
360
1C0
  0
DICTIONARY
  5
20D
330
18B
100
AcDbDictionary
280
     1
281
     1
  3
ACAD_XREC_ROUNDTRIP
360
20E
  0
DICTIONARY
  5
20B
330
18A
100
AcDbDictionary
280
     1
281
     1
  3
ACAD_XREC_ROUNDTRIP
360
20C
  0
DICTIONARY
  5
205
330
187
100
AcDbDictionary
280
     1
281
     1
  3
ACAD_XREC_ROUNDTRIP
360
206
  0
DICTIONARY
  5
207
330
188
100
AcDbDictionary
280
     1
281
     1
  3
ACAD_XREC_ROUNDTRIP
360
208
  0
DICTIONARY
  5
1FD
330
183
100
AcDbDictionary
280
     1
281
     1
  3
ACAD_XREC_ROUNDTRIP
360
1FE
  0
DICTIONARY
  5
1C1
330
58
100
AcDbDictionary
280
     1
281
     1
  3
ACAD_XREC_ROUNDTRIP
360
1C2
  0
DICTIONARY
  5
209
330
189
100
AcDbDictionary
280
     1
281
     1
  3
ACAD_XREC_ROUNDTRIP
360
20A
  0
XRECORD
  5
1B1
102
{ACAD_REACTORS
330
1B7
102
}
330
1B7
100
AcDbXrecord
280
     1
  1
AcDb_Thumbnail_Schema
102
{ATTRRECORD
341
1B2
  2
AcDbDs::TreatedAsObjectData
280
     1
291
     1
102
ATTRRECORD}
102
{ATTRRECORD
341
1B3
  2
AcDbDs::Legacy
280
     1
291
     1
102
ATTRRECORD}
  2
AcDbDs::ID
280
    10
 91
        8
102
{ATTRRECORD
341
1B4
  2
AcDs:Indexable
280
     1
291
     1
102
ATTRRECORD}
102
{ATTRRECORD
341
1B5
  2
AcDbDs::HandleAttribute
280
     7
282
     1
102
ATTRRECORD}
  2
Thumbnail_Data
280
    15
 91
        0
  0
XRECORD
  5
1B2
102
{ACAD_REACTORS
330
1B7
102
}
330
1B7
100
AcDbXrecord
280
     1
  1
AcDbDs::TreatedAsObjectDataSchema
  2
AcDbDs::TreatedAsObjectData
280
     1
 91
        0
  0
XRECORD
  5
1B3
102
{ACAD_REACTORS
330
1B7
102
}
330
1B7
100
AcDbXrecord
280
     1
  1
AcDbDs::LegacySchema
  2
AcDbDs::Legacy
280
     1
 91
        0
  0
XRECORD
  5
1B4
102
{ACAD_REACTORS
330
1B7
102
}
330
1B7
100
AcDbXrecord
280
     1
  1
AcDbDs::IndexedPropertySchema
  2
AcDs:Indexable
280
     1
 91
        0
  0
XRECORD
  5
1B5
102
{ACAD_REACTORS
330
1B7
102
}
330
1B7
100
AcDbXrecord
280
     1
  1
AcDbDs::HandleAttributeSchema
  2
AcDbDs::HandleAttribute
280
     7
 91
        1
284
     1
  0
FIELD
  5
AE
330
AD
100
AcDbField
  1
AcVar
  2
\AcVar Filename \f "%tc1%fn6"
 90
        0
 97
        0
  4
%tc1%fn6
 91
       63
 92
        0
 94
       59
 95
        2
 96
        0
300

 93
        1
  6
Variable
 90
        4
  1
Filename
  7
ACFD_FIELD_VALUE
 90
        4
  1
O:\LP\DRIPDTLS\Submittals\2015-03-02_100%\09.34\DWG\17MM EZ-ID CV DRIP RING LAYOUT FOR TREES & SHRUBS.dwg
301
17MM EZ-ID CV DRIP RING LAYOUT FOR TREES & SHRUBS.DWG
 98
       53
  0
FIELD
  5
AF
330
AD
100
AcDbField
  1
AcVar
  2
\AcVar CreateDate \f "MMMM d, yyyy"
 90
        0
 97
        0
  4
MMMM d, yyyy
 91
       63
 92
        0
 94
       59
 95
        2
 96
        0
300

 93
        1
  6
Variable
 90
        4
  1
CreateDate
  7
ACFD_FIELD_VALUE
 90
        8
 92
        8
310
FA90F45400000000
301
March 2, 2015
 98
       13
  0
FIELD
  5
BB
330
BA
100
AcDbField
  1
AcVar
  2
\AcVar ctab \f "%tc1"
 90
        0
 97
        0
  4
%tc1
 91
       63
 92
        0
 94
       59
 95
        2
 96
        0
300

 93
        1
  6
Variable
 90
        4
  1
ctab
  7
ACFD_FIELD_VALUE
 90
        4
  1
Model
301
MODEL
 98
        5
  0
FIELD
  5
BC
330
BA
100
AcDbField
  1
AcVar
  2
\AcVar CreateDate \f "MMMM d, yyyy"
 90
        0
 97
        0
  4
MMMM d, yyyy
 91
       63
 92
        0
 94
       59
 95
        2
 96
        0
300

 93
        1
  6
Variable
 90
        4
  1
CreateDate
  7
ACFD_FIELD_VALUE
 90
        8
 92
        8
310
FA90F45400000000
301
March 2, 2015
 98
       13
  0
DICTIONARY
  5
DA
102
{ACAD_REACTORS
330
D9
102
}
330
D9
100
AcDbDictionary
280
     1
281
     1
  3
101
360
DB
  3
94
360
DC
  0
XRECORD
  5
21A
102
{ACAD_REACTORS
330
219
102
}
330
219
100
AcDbXrecord
280
     1
102
DISPLAYNAME
  1
Imperial24
102
FLAGS
 90
        0
  0
XRECORD
  5
1BD
102
{ACAD_REACTORS
330
47
102
}
330
47
100
AcDbXrecord
280
     1
102
MATERIAL
148
0.0
149
0.0
149
0.0
 93
        0
 94
      127
282
     0
 72
     0
 77
     0
171
     0
175
     0
179
     0
273
     0
  0
XRECORD
  5
48
102
{ACAD_REACTORS
330
47
102
}
330
47
100
AcDbXrecord
280
     1
270
     1
271
     1
  0
XRECORD
  5
49
102
{ACAD_REACTORS
330
47
102
}
330
47
100
AcDbXrecord
280
     1
270
     1
271
     1
  0
XRECORD
  5
4A
102
{ACAD_REACTORS
330
47
102
}
330
47
100
AcDbXrecord
280
     1
270
     1
271
     1
  0
XRECORD
  5
4B
102
{ACAD_REACTORS
330
47
102
}
330
47
100
AcDbXrecord
280
     1
270
     1
271
     1
  0
XRECORD
  5
4C
102
{ACAD_REACTORS
330
47
102
}
330
47
100
AcDbXrecord
280
     1
270
     1
271
     1
  0
XRECORD
  5
4D
102
{ACAD_REACTORS
330
47
102
}
330
47
100
AcDbXrecord
280
     1
270
     1
271
     1
  0
XRECORD
  5
1BC
102
{ACAD_REACTORS
330
3F
102
}
330
3F
100
AcDbXrecord
280
     1
102
MATERIAL
148
0.0
149
0.0
149
0.0
 93
        0
 94
      127
282
     0
 72
     0
 77
     0
171
     0
175
     0
179
     0
273
     0
  0
XRECORD
  5
40
102
{ACAD_REACTORS
330
3F
102
}
330
3F
100
AcDbXrecord
280
     1
270
     1
271
     1
  0
XRECORD
  5
41
102
{ACAD_REACTORS
330
3F
102
}
330
3F
100
AcDbXrecord
280
     1
270
     1
271
     1
  0
XRECORD
  5
42
102
{ACAD_REACTORS
330
3F
102
}
330
3F
100
AcDbXrecord
280
     1
270
     1
271
     1
  0
XRECORD
  5
43
102
{ACAD_REACTORS
330
3F
102
}
330
3F
100
AcDbXrecord
280
     1
270
     1
271
     1
  0
XRECORD
  5
44
102
{ACAD_REACTORS
330
3F
102
}
330
3F
100
AcDbXrecord
280
     1
270
     1
271
     1
  0
XRECORD
  5
45
102
{ACAD_REACTORS
330
3F
102
}
330
3F
100
AcDbXrecord
280
     1
270
     1
271
     1
  0
XRECORD
  5
1B9
102
{ACAD_REACTORS
330
11
102
}
330
11
100
AcDbXrecord
280
     1
102
MATERIAL
148
0.0
149
0.0
149
0.0
 93
        0
 94
      127
282
     0
 72
     0
 77
     0
171
     0
175
     0
179
     0
273
     0
  0
XRECORD
  5
12
102
{ACAD_REACTORS
330
11
102
}
330
11
100
AcDbXrecord
280
     1
270
     1
271
     1
  0
XRECORD
  5
13
102
{ACAD_REACTORS
330
11
102
}
330
11
100
AcDbXrecord
280
     1
270
     1
271
     1
  0
XRECORD
  5
14
102
{ACAD_REACTORS
330
11
102
}
330
11
100
AcDbXrecord
280
     1
 70
     1
 90
1959938040
 71
     1
  1
B0075ABF-600D-4568-A1B6-57B33EDC541B
311
504B0304140006080800AE513C46810AF72FD9000000200100004F00000039374433444535352D383138382D343444432D394331362D3645303933363131343938332F4173736574446174612F446566696E6974696F6E4974657261746F7250726F706572746965732E62696E454E3D4FC3400C3D18400C0CFC83AAFB711F
311
49481AB545841426586062A9DC8B5B225D922A97488C8CFC6B6A8BA25A7A7EFE7CF68F10E2F768148A33C237F96BE2676CB1AFDD9BFBC406C405577CB7017F79EA9D53C869895B18FDC05B2F7570E83DB4D88DE1E6343A69602039F0B7BC7445F82F0456D8FD1DE3FBAF047E8919AA7D7E0F21E0B050DBCD977A489FA222B2
311
A92C57592CE3B4D0B2489295BCB3B372F668E3A83489EA317463EF3028ABF4FAA8BCDEB7BBBA5ACE87BAC1490B0D2EA6AE47FAA99A2EAD3689D446DAECDDE8DC44B9CD3EE68A270F504B0304140006080800AE513C46261B46F7F8000000300200004500000039374433444535352D383138382D343444432D394331362D36
311
45303933363131343938332F4173736574446174612F496E7374616E636550726F706572746965732E62696EEB606060F80F0540260323103700495E20ED9E9A975A94991C9C9C919A9BA802147032303037757472D335333070D1353135B3D075347432D3353577323676757136353174624768046931363471713532B5D4
311
35353131D635313332D475727372D13534373670367376B67474B5042A03DBCBA019D37FE8ABC6157B20CD04146B0062181F4C03F940F0C11EA29A8141C08141002C0426541C106CAC2CA046088033B02A030AC2157C6006F21A8018AAF50194E6010A610250382264E08660284CD9E98021862280A91564B406929A0FF62C
311
401E28B6F88038B83CB1243943D7A928312F25350524432C58015408C233201AC071814F2F00504B0304140006080800AE513C4628BB58AF800100009E0500003D00000039374433444535352D383138382D343444432D394331362D3645303933363131343938332F536368656D61732F436F6D6D6F6E536368656D612E78
311
6D6CBD544D4FC23018BEFB2B96DE15493C78601010A34B880709DEDFB52FD0D8B54BD70DF6EFED3AC0B12E6442E2716BFB3CEFF3D18E26FB440405EA8C2B1992E1C323095052C5B8DC842437EBFB673219DF8DA659866649B798C078B48AE6410122242F2A4994AC7F93815DF85C049C8564CA0A901499DD886B2EB9B1E024
311
48F358701A9235880C49A0119892A20C89D1B9FD768815CAD268CB5E0355B40B1E47F3E37A2020464BED06AA57CE8FCC20C3C3446D46761A2632A8C1283D07031EFF2AE7CCB1BFEEE916E406DFAC8E36FFD99A9D60A6944090EEDC3B670C7DC13DE86B6B2C5C240D6E503BB85ACD579D513F1B9F9A69DC9CC22AFA80C426D4
311
0AF0B21EA168559156B6276F0F726A6BFF04DCD513A87A62CAD41FB24FCB2858B3952E3D852084DA25B9303C15687973CC8E8AAE11DF2836C38C6A9E765E8C1BA1BFB1DC29CDFE518C8B5A7655A4ED7E77291ABEB80DBD82EC866ADE1B8D05AF9E35CF09D7A061F38A986D9EC412B8F0F65E5D81534D9B231D1E5A8FE577A2
311
41F3A5FD01504B0304140006080800AE513C462CCEBD668A040000E01200003E00000039374433444535352D383138382D343444432D394331362D3645303933363131343938332F536368656D61732F47656E65726963536368656D612E786D6CD5586D6FDB380CFE7EBF42F0F7A649B70E1B90744856B4970F450FCD7A5F
311
05459613EDE4174872DADCAF3F522F8ED3B88D2F1D06AC4050DBA2493EE4438AF2F8EB73AEC8466823CB62928C06C384888297A92C5693A4B6D9D9E7E4EBD51FE3A931C22EF85AE4EC6AFC38BF261BA626C9AD288496DC3F4FCEAFC63366845F7A10452AF41DB320C0D44EC26EAB20918735565582695670811A6A49643A49
311
A6E9069FA4604A64B29016DC4B48552F95E4932463CA888468C1D2B250DB4962750DF7CE273069CE8363F1FF4EDB00E0A21999574AE4A2B00C353B93F3BD4777B8A61ED8F604ABFEDD79CE56A2B7BDFBDBC50996E0ADDE16FED26223C5D30956C29BDF4A55EA686E5E58B112DA45CE67F76F4FA27EFA3FB672FD7372FC388F
311
AECDCA5209E693CAD167BADCD272F943701B3812F8A3D852008B1D2E32DB927B2F833C6EA95879925356D254582695095A3CE982924720BE5774A3CB9CDCDB350427D2DF20DA1B5532EBE2D5D6288D75D4F7E4FD9890A0EF8E3D93EBB8F8BA4758158EF6FB90A6F9520281C93DE7AAC6D24607DA296BB96018123F821A7D6A
311
5C5884050C475DA4865442732C8B95684A50165CBB3A32F25F783A4A480ED59AD7F924B968AEA50131F46303223E6A397B0E52976030DC1DCA81D7E7C1EDEEA42C19FF27635C505E2BD5198A599020DF50A2330FCB3AAF28CB0124108429553EF1B228802E2265D8F7CC2401042B155BCC7070F1E5C55F13B4A9577362CCCE
311
46C32174E010C3C378C44841A4BDA00FE3A12006CE11EE6AEC59894D3526DDE1CD59D503ECC324017F8061B7F162162FA62EDD81AE3308617770796DCBDAD2B2625C5AE8A63DE20B2C8AA5E95E76E5730823955956E33E705425A2187C185D36489A1B44D3DCEC2172F6BA2105C3546287A7194B2331768EBBE64F6E70A993
311
0ABE0ADEA89E9E2C38523B810287AD67A54A039C1606EAFE68F8304610BB9093DBDDABC0B2AE4E290DCDA15376D7E39F72B556F0B32EAB5D3D498B4C41ABADEC3A1434C422D87E8025A84BDCB2B1417ED750FAE4DA8976863974C577C7F902D3F156AD354DEA3540DE6BEAE2BEA52F7A2EB4CA43802ECE5BF2CE2EDC934717
311
9FFB023CE412E60BE16DA0BE29B374988A553F561DC04615DD35F7D2C8979F60E5955CE93DF29DED8AFA1EE6642D53418086C03C47C377910F75F7E8F5EF665F70B60FFB22AEDF897D119E8423C773E819A3C1E55E550599EE6EDCA34D0C86FD72057DF2CD46F16A470682471C164E4346D5306BF12D7D12D82CFF673D4163
311
6C347443FEB51B50D72EA171A8E4A58623A4A16E0FA2B8B10A0D23268D87C33896EE8FB73305A74BF224EDBADFA0BD674AB354D63DB7BD5D83426761C077DE767728235446A552754EB93B755891C3C4CC6CADE37CF0E912A7BB38DBA010F9DE1282EDF470CA69A9CDA482E334C4A6EA4107987980B17E72F31730EBF88BBD
311
39E7C629F56797A3C0009C2C5AE7951D9A05A02773440F02EEB4DE396A3B6A570C72CCFBCD823B0B8ED3F1D5CEDDFED772FA70236C83FB7D86C385D570B87107535572A60A96035F8F7C6A7192F13007246BBE0521855E6AC46F3E27689CEE7D186A6FD679D98CDCAD13333E04EBE7ED6F55FF01504B0304140006080800AE
311
513C466180134D5F0100006B0300004500000039374433444535352D383138382D343444432D394331362D3645303933363131343938332F536368656D61732F52656E6465724D6174657269616C536368656D612E786D6CA5934D6FC2300C86EFFB1551EEE343DBA41D1A103009551ADAD40EAE28A4A68D9426284961FCFB
311
E5A340113B2071746D3F765EBF4DC6BFB5407BD0862B49F0B037C0082453059725C18DDD3EBFE3F1E829991803366715D474942CD30FB4A782E00C64017A412D684E454CE3FE28995203B162A6EA5AC94B66997D225E109CD63B0135484BAD1B3C07E9080CA35DB3119C11BCA5C200461A68A1A438126C75E3E230D40FF81F
311
B3F03C91D1E3A3A0AF79FE28E25BC39EC3E17E4C2A2D94A0833A51AF55BCCA7D88572FCBAC529C4140B020FC3AAFA886621DCED7EAD7664CC86024E806DC297DA1BB393E4156543457A4537DB8817349A70F8ACBF09B3EEE2CB2F33E91B65D60786E4E3B39B77E3FEEEF5650424525DA657FB8B46BE6BF064646F0A0F7327C
311
0BC1BC1B4CBBC1C419FA3CCB23500007872A2580CAAE5461865565294E4EDB4617B62FF579DF9A5B2F54E834076A597573A020912FED777F9B3F504B0304140006080800AE513C46AA0AEC9751000000570000004700000039374433444535352D383138382D343444432D394331362D3645303933363131343938332F4173
311
736574446174612F41737365745461626C654F66436F6E74656E74732E62696E536160607032303037757472D335333070D1353135B3D075347432D33535773236767571363531741202AACB4D2C492DCA4CCC492C28484D2C4ACC4B4E050A82012F90744FCD03CA26072767A4E6260200504B0304140006080800AE513C46
311
F865834058000000680000004500000039374433444535352D383138382D343444432D394331362D3645303933363131343938332F4173736574446174612F53747265616D56657273696F6E5461626C652E696E66558CBD0A80300C06F73E4B117FB66E451741D041DC5BF98480A492E4FDD18EAEC7DD4555D89EF28DF51A
311
0B1BD8340C4DE7DD848B988C0ACF0649566493F2408C508DDEBB99D5129FF8F1AF8CF5B9503E20FAE5A16B5AF702504B0304140006080800AE513C46972D876E340100009A0400003600000039374433444535352D383138382D343444432D394331362D3645303933363131343938332F4173736574446174612F636E782E
311
786D6CCD94314FC3301085FF4AE43D76528454558E2B044B2790A818D8AECEA5B5EAD8917D41F0EFB1930CA022A60E5DCFEFCECF9FFC4E6E3F7B5B7C6088C6BB86D5BC62053AED5BE38E0D1BA92BD7ACD82A19BCA71F325638E8B161B9CC943C063F0E4BA9C50E469BABD6B8F3527C8811690F078BCFDDA377848E222BB485
311
181B16F5097BE030926F319E790B04BCE601A31F83C634894C8FCB241D10085BA656557D5F5675B95AEFEB6A53DF6D56EB7729B252C983F776D19B7459F043A1E75B99AAA4C8C74A8EC12C9AFC16A6FEF2C80FC64991944A460A89C9D2415F43EA8061B046032574C26B422A9308A19762162B2932835F249EB033CEE4965D
311
3206E4C34BB287810CDE1C91FFBC5E9FCCCE4502A7F176795C3ABC3E85D7E907BDCD819C12736B39B974C88DEBAE901231AD91149ABC55D437504B0304140006080800AE513C4697C91AF4080100004F0300003400000039374433444535352D383138382D343444432D394331362D3645303933363131343938332F536368
311
656D61732F636E782E786D6CCD93BD6EC32014855F05B1DB185795AC08932143A72E6DA76E146E5214CCB5F8A9DAB72FB80C89D4AD1DB2C1E1133AE77011FBCFC5910F08D1A29F29EF074AC06B34D69F669AD3B19B28D94B1110D3054689570BCCB4CA548A53C0BC36C9C05165575567FDB989075C16F4CFFA1D164589762A
311
C699C66DDBAB9CD0403CF74625D5F33E40C41C34941B925DA0DDA003A80486CA71E0F7DDC0BB717AE1C38EDFEDC6E955B04A4AF186E81A6F7D82802BD15816BED81904ABC752E4601B53335079E9AD2F6D08560829620AA58346A6AFB5906A5D9DD52A95AAD806FE3052B01AF52AF003780856DF66E22B73FF16F909BC81F0
311
585E2958E56E33F96F1EFF5600DB66BF8C40FD0AF21B504B0304140006080800AE513C46410A3D5871000000A40000002C00000039374433444535352D383138382D343444432D394331362D3645303933363131343938332F636E782E786D6C55CC4D0E82301086E1AB34B31774E7A22D31F1069E60020334B633A63FC6E3
311
4B0909B07DDE2F9FEE7EC1AB2FC5E4840DDC9A2B28E25E06C7938192C7CB1D54677514C9871928C640062A83D55394F2D968A0118BAFEA1DBF377CA444F98919176EAB9FEAAB9F2960DA5BBB1E2ED3FA6FFF504B0304140006080800AE513C4685D646DC7D000000A300000007000000636E782E786D6C4D8C410AC3201405
311
AF227F6F1BD15805358B988384C604A9D16263E9F1AB258BAE1E0C6F460D9F3DA0B7CB2F9FA20672E900B9784F8B8F9B8672AC58001A8CCA291D7F374071DE9D8686C1A82DA7F23CD1E2D6B98446838F8F13CA9BA576EA7B2C881098313B6239128EF9D449CA096152D06A5C9B52E7D7ABDBF2E60B504B0304140006080800
311
AE513C4616E99B5DA600000035010000130000005B436F6E74656E745F54797065735D2E786D6C9590410E82301045AFD2740F4517C6180A0BF5065E60AC53688469D30E066F6F91AD9AB89CF9FFFD3F99BA9DC7413C3026E749CB4D59498164FCCD51A7E5C4B6D84BD136F5E5193089ECA5A465CF1C0E4A25D3E308A9F401
311
292BD6C711388FB15301CC1D3A54DBAADA29E38991B8E0254336F5092D4C038BF39CD76B6FC6A538AEBEA54A4B08617006389FA516557DE4AE8E7E70DE30729138228C5F021CD93F02D4FB0DCD0B504B0304140006080800AE513C463DEE336E64000000790000001B0000006175746F6465736B2D64657369676E2D706163
311
6B6167652E786D6C35CBC10E83200C00D05F21DCA56CA76D41FC96062B120735B69A7DBE268BB7777961F8D5AF396893C2ADB70FE7ADA196782C2DF776D7A97B5933C430F15651E5469C55D70F80A4992A3ADC954792C525AE70A1E4D6AD9816CC044FEFDF01FE3FDE907802504B0304140006080800AE513C46CF8452A6F9
311
000000960100003700000039374433444535352D383138382D343444432D394331362D3645303933363131343938332F4173736574446174612F636F72652E786D6C8550CB6EC32010FC156BEFD8063FEA449828CDE30B7AEA0D01715162B07854FDFC42EC4AEDA9A75DCDCECCEE0E3D7CCD8FE25339AFAD1901973514CA08
311
2BB5994688E18606280E8C3A6BC32F1A1486CF6A840C03A393B371D920614D5026A3C64AB581DC7B15A0108FD48CE0C5879A79C963480C7F2F172EEE7C52252E571EA3316AB949B54C6EFAA6950346DAE678ED07829AEBE5825A8C4F68B7BB74E88574A7A66F5FCF7D5BD32A8B190D7AFED92E9CE241C9A4AF71876A8CC8F0
311
86EB3D6EF66478A7556632EA834B3F6F4BF377C08EF9EA330F9C56EBF48F6B5CE4FFAE519BD090CD75557860381DF91C305AE594527946986A4E947D03504B0304140006080800AE513C463556020DF8000000940100003500000039374433444535352D383138382D343444432D394331362D364530393336313134393833
311
2F536368656D61732F636F72652E786D6C8550CB6E833010FC15B47703368F92C8386A53F203EDA9370B3BC44AB0911F553FBF3650A93DF5B4ABD999D9DDA1A7AFF9917D4AEB94D13DE0BC844CEAD108A5A71E82BFA20EB213A3D618FF8B0699E6B3EC21C1C0E8644D58766834DA4B9D506D84DC41EE9CF4908D8FD8F4E0C6
311
9B9C79CE838F0C77CF173EDEF924739C6F3C46435062972A11DDD455490B8CD4D5F3A5ED08AA2EC3806A8CCFE870181AF4449A73D5D62FAF6D5DD2228919F56AFED93E5AC9BD14515FE206951891EE1D97475C1D49F7418BC464D4791B7FDE97A6EF80BDAD773A5A6CB33F9E6111FF7B06A57D4576CF4DE180E178E23A60B4
311
4819C5B206186BCA937D03504B0304140006080800AE513C464FEE611D00010000D70100002D00000039374433444535352D383138382D343444432D394331362D3645303933363131343938332F636F72652E786D6C9591CB6EC32010457FC59A3DB6F123C511268B387FD05577D44C1C94182C1E553FBFB876D576D7AE40
311
977367B833FCF43E3FB237745E5BD303CD4BC8D08C566933F510C39530C84E823B6BC30F0C322367EC619541F0C9D9B8ECD2684D40B3AAC62ADC45E93D06C8C647BAF4E0C71BCE32973124C2DFF3458E7739614EF38D133CE8F9CB3A3A94011588AAA42D2929A9D8332D8FB43E56EC85172B2978D426D4D5DE0CE75754995D
311
428A04A2E5C5F69AA8A8D5CE6895FEA8AF1A1D88EE69A8874BDB124619234D339C4977A60772B8945D7DA0B4E9589D8A24B3E03EB83499BDC83A83BFDA37E3AF647151FF4CB6393C08FA1DAA58C72C78F1B98374AE2B111F504B0304140006080800AE513C465269FEAF06010000B201000008000000636F72652E786D6C8D
311
50CB6EC32010FC15C41DDBE0479D0813B5A9F3053DF5460D71506CB07844EDDF17122AB5B79E16CD6367587AF85C177093D629A307888B0A02A92723949E0718FC19F5101C18B5C6F85F3208345FE500130C199DAD095B8626A3BDD409D546C80C72E7A487605AE263806EBAC895173CF8A870D762E3D395CFB2C0C543C7A8
311
57EB8F75B2927B292023156E518511E9DF70B5C7F59EF4EFB44C4A46435022472911D3D559491B2D4DFD7CEA7A82EAD338A206E323DAEDC6163D91F65877CDCB6BD754B44C66469DB7F1CF7949ECE981E3B7944BCB07C5E887314B16C4520218BD7C41163724E24FE9B0897F9456DAD7242F7C381C643816BA1331385D308E
311
FB79E34CD766DF504B01021400140006080800AE513C46810AF72FD9000000200100004F000000000000000000000000000000000039374433444535352D383138382D343444432D394331362D3645303933363131343938332F4173736574446174612F446566696E6974696F6E4974657261746F7250726F706572746965
311
732E62696E504B01021400140006080800AE513C46261B46F7F80000003002000045000000000000000000000000004601000039374433444535352D383138382D343444432D394331362D3645303933363131343938332F4173736574446174612F496E7374616E636550726F706572746965732E62696E504B0102140014
311
0006080800AE513C4628BB58AF800100009E0500003D00000000000000000000000000A102000039374433444535352D383138382D343444432D394331362D3645303933363131343938332F536368656D61732F436F6D6D6F6E536368656D612E786D6C504B01021400140006080800AE513C462CCEBD668A040000E01200
311
003E000000000000000000000000007C04000039374433444535352D383138382D343444432D394331362D3645303933363131343938332F536368656D61732F47656E65726963536368656D612E786D6C504B01021400140006080800AE513C466180134D5F0100006B030000450000000000000000000000000062090000
311
39374433444535352D383138382D343444432D394331362D3645303933363131343938332F536368656D61732F52656E6465724D6174657269616C536368656D612E786D6C504B01021400140006080800AE513C46AA0AEC9751000000570000004700000000000000000000000000240B000039374433444535352D383138
311
382D343444432D394331362D3645303933363131343938332F4173736574446174612F41737365745461626C654F66436F6E74656E74732E62696E504B01021400140006080800AE513C46F865834058000000680000004500000000000000000000000000DA0B000039374433444535352D383138382D343444432D394331
311
362D3645303933363131343938332F4173736574446174612F53747265616D56657273696F6E5461626C652E696E66504B01021400140006080800AE513C46972D876E340100009A0400003600000000000000000000000000950C000039374433444535352D383138382D343444432D394331362D36453039333631313439
311
38332F4173736574446174612F636E782E786D6C504B01021400140006080800AE513C4697C91AF4080100004F03000034000000000000000000000000001D0E000039374433444535352D383138382D343444432D394331362D3645303933363131343938332F536368656D61732F636E782E786D6C504B01021400140006
311
080800AE513C46410A3D5871000000A40000002C00000000000000000000000000770F000039374433444535352D383138382D343444432D394331362D3645303933363131343938332F636E782E786D6C504B01021400140006080800AE513C4685D646DC7D000000A3000000070000000000000000000000000032100000
311
636E782E786D6C504B01021400140006080800AE513C4616E99B5DA6000000350100001300000000000000000000000000D41000005B436F6E74656E745F54797065735D2E786D6C504B01021400140006080800AE513C463DEE336E64000000790000001B00000000000000000000000000AB1100006175746F6465736B2D
311
64657369676E2D7061636B6167652E786D6C504B01021400140006080800AE513C46CF8452A6F90000009601000037000000000000000000000000004812000039374433444535352D383138382D343444432D394331362D3645303933363131343938332F4173736574446174612F636F72652E786D6C504B010214001400
311
06080800AE513C463556020DF80000009401000035000000000000000000000000009613000039374433444535352D383138382D343444432D394331362D3645303933363131343938332F536368656D61732F636F72652E786D6C504B01021400140006080800AE513C464FEE611D00010000D70100002D00000000000000
311
000000000000E114000039374433444535352D383138382D343444432D394331362D3645303933363131343938332F636F72652E786D6C504B01021400140006080800AE513C465269FEAF06010000B201000008000000000000000000000000002C160000636F72652E786D6C504B050600000000110011005A0600005817
311
00000000
310
504B0304140006080800AE513C46000000000000000000000000370000006662782F44354639393937432D434545432D344535412D384532422D4432314336334137344141372F617474726962757465732E62696E504B0304140006080800AE513C46000000000000000000000000350000006662782F4435463939393743
310
2D434545432D344535412D384532422D4432314336334137344141372F76657274696365732E62696E504B0304140006080800AE513C46F270F1330600000004000000360000006662782F44354639393937432D434545432D344535412D384532422D4432314336334137344141372F747269616E676C65732E62696E6366
310
60600000504B0304140006080800AE513C4651464CB48900000043010000360000006662782F44354639393937432D434545432D344535412D384532422D4432314336334137344141372F6469726563746F72792E786D6C9D8F310EC2300C45AF127987122606C71DD918B841D4B851A43646695A717C52A85029031293A5
310
A76FBF6FACEF7DA7264E43906840EF0FA03836E242F406C6DCEE4EA06AC22492573150D1F66C60C640E8938CB705396EEDD86DE9B5042FE27813D640EA63BB001C722AF6E55CB61E4863F58284D5D3F53DD715CE1C3985E63FD7F1B7EBDD617E9F1E504B0304140006080800AE513C4610E80CC339070000201C0000340000
310
006662782F44354639393937432D434545432D344535412D384532422D4432314336334137344141372F6F626A656374732E786D6CDD596D6FDB3610FE2B84F665FBA037CB76E2427111DB496114698B1A1DF64DA065DAE1A2379052E2ECD7EF4891B224CBB6D2B540B104481C863ADE3D77F7DCF1E4BFDFC7117A268CD334
310
B9315CCB311049C2744393DD8D51E45BF3DA40EFA7C867699AD7F61928C131B931C4B231F5772C2D32B5B4215B5C44EDD5FBD95F88872421060A23CCF98DC1C34712630B1779BA21FCC9DAE01C5BBBEDDE72AD726353EC8EE1ECB17554861949725015D61390A234709B7F8249F6D4B7C586C6B641BF6DDE996DB634BCA928
310
4D788E93F048AB969C413FAD3C77B8B81B8C26E66838F4CCE178E09AB3FBD9C274AF3C673E9ECF27B77713034DFD759A46950332926CC08BAFC6D4F56DF19FCA7C854297DE619A24245468766DD810259712DEC6A401AC2B4DAB39A4B4B5B6E0F534FEC4B65EA034546AA0AD8DD3BFEBD19BAEFF0610789F28659C8828E739
310
035F2BECCB7C707CBB5C6DF8857214E39C308A2314D135C30C1C045B4B0735C4886C11A290C04C7A51CBABEB0A817D3997BAB4DC165124F2D798CA4C0B201F49CEA566F41FC20EDAD74F039DC0DA8226F9B532367FCD40C4C4B7E562F93F6FA0FE590289B611DE41B4809962933768E135175CB05C18D38FF7EBFD4AF043F7
310
E1194B33C2721179329955DE690FD6420B82AF072825AE4DDF1D50F90AD07F02E42B5D900F9E63743FDC0FB5ED0C277C9BB218BC831C643AF0C341E2E3D127DFAE1E9E22D4E0CA539842DAFE204C1B6634CEAE413AF59F21E853E629E356218E20A61F6822F21C020545292C01DF6FD77B63BA04328545780A47603D7CFBB6
310
F888E0572907F8A6E5A12EFAEDE1289D30ED3C3BF8EA03C40CA361E5AA868DA7F01DFD107C6F17AB8FAB826D71481E54622FC89626348762DAAD5003F446CA7F5B7E921979644F635708E7EC52411C1D7E5929BF20E9185045D4E1D23572E58142BA47114E485A70B5DE4554611AA52C58BF06650E779EF5A70E82F230C86F
310
11019D6406D53D643413A01853655EC584D60127C1832A0077A55383350E9F04BC41088CF53D7A40D462D6165AC45980E3B448047D1F8777DB34CB73E497EB4E06CE64703D196B63B914AFB3475343A5BC3827C6D98943E60D6F29D6D092CB3C1A025B76591042CF54E4419AE190E6DDB1D032426528807D56E50DDD6E0B0E
310
A4DE094B4B63CB7347C8A9FDAC0E39AFBD3A24A031DE91608B4585EB3CAF0150255C5BD089CC2E4A39A709E1B2433962AE162A8E054450C6AD96DA1184940731C9F1F7C49F2C79ADF063641B05D04BE5A29BBD1C7D5A41553D4F49149D5B9A04D2FED780E3388BCA2EED1206EEA0754227AE426971C433C45B80F3C0D910D9
310
745F925EF182C6B797F4C9778B3F010FC33F1D1E7D0485D61B6AE465CFBAD6C89D88AF6B2095F1C8F5AEB4232E61A58FCA450F1215D03585AFC10BA1BBC77E84D6EB1C4EA26D40A3A88883B21EE42486160CE705EB95AFE39173E47CC50BAD84A89DB4A51134C8BD4953F61EBAFB00AB64F3718A346BC7805134813B5A2F43
310
8EACE80C61E90B791F15D7AECBDE7FBBD4FFCC97F57BCA13797D49D9A653D3661BA13B30DD3008BA5415AE8A232979EAD7932F961797CB380CB510C56FE52D41450823CF540C26E40DA8F3FEC05F701E0291AEE46F730619B1219B434FD110A7C61CC6140ED5D2749F5ABFE900D989F2D168BC96825063983660C1B30FE243
310
F41583ABA1F3E3B6EA6AEC727D290A9B058395831E67647DFEB06A498195DE4F7F111891979604B53A178DDC1951DF96877EB5254159F46D79E6F1FCB188D709A6A2328AB0C09BECDD7B7997BCB1E1A260DF5EDD7B336F70652EEEAE87E6F06AE698B3D1E8CE1C0F268BC97C30F416EEC86684A7050B09B707B613E8DE294B
310
763A304AE8FADC2860AA70F9EAA7E3B9EDE0FFF18D224AD7F8542CFEAA178AAADD130D592B17FB5E283A897AFDB6EEDF3D22EAEE22F6A6CEB99C15E8003F5FB6808C74BDEFDF5A68D1BA93E8D6B95611DF58784FDE567E7A8D69107A677D68ECE8A2FC2617C3ECA9A34AE9DBADE4B599E35C8D6E67F7E6D87116E67034BE36
310
6FDDD9D81C5DCD3CEF6E311F0DDD5985B8AA857DEBCA2FC1A15AD9DA180DA6C13C8D280CE5C906ED480A3720983AF4E05716132E6F36D000A832AEDF08F478FAB99CA9E6781DE9A7C3470C83E94855E42284A128DC3A6E0CB58E7E8331A89844CAE194F504854745BB810A466F0C08819C427DB1D630CE92C34329BD35AE04
310
B7E16427EE4CE553D5DF87C7043A102B07BBAA3D7D70519635A2138603997C4F006CA71B92EF375DAB83700E1FD7455E1973583858A340D02F044AE360EAF7A4E0DD03F19CB7CBB5E49E0624BD26F367E3A0946AE698EDE478BD86F7EDE28B2D26E3CBCF288B8A9D70E7B97ADF90648A3E232ACA21940F81A1CCCCB0B887CF
310
DFD95F580AAF9862744F2108D0EFFBEBF11FF63C8DE3342997EC5BF5A20AAD1EE1B5D3C6D6233F685C1CE86364DFA3C6FA30B7E2C4C21BFE040BE05A46C56CB484B81100153DD502407B44F8021E6BEC5F2E902A02B516B6DEBA0A78E44C1F4122897739226DEA1B6A0348C805D0AA9CD3561FF4826F3318824FFF05504B03
310
04140006080800AE513C4694E47E0F3D01000046050000300000006662782F44354639393937432D434545432D344535412D384532422D4432314336334137344141372F636E782E786D6CCD94C16A032110865F45BCAFEEA61442700DE4D027E8A1F4E6BA93AD8DAB8B8EA579FB6ABA495B4A4A0F81E426E33FF07F333F23
310
D6EFA3256F10A2F1AEA50DAB2901A77D6FDCD0D284DB6A49C95A8AE03D7E9351E2D4082D2D652AC5107C9AE6520F5B956CA95AE37673512106D325844889B62AC69646FD02A3622AA1EF21EE58AF50B18605883E050DB91FCD0873BF0EA0107A2A1775735FD54DB5583E36F5AAB95B2D96CF8217A5149DF776D61B8710FC44
310
B4CF0F97CDD482976F295230B3A61050F9E58C75C6099EFFA588D9AD1B661DEEA7A29B266BB4C23C26EE35025659046A14FC532C052FBC3FA81F364F4707A4370134FAB0BFD2009A73033819633909FFE33F08FFC6F6DD6BC6BDD6B6CFC2CEB62E867A4C6BCC71FDBDFF9C22E5067B7BA13F19BB7CE6F32941A36F0FF9E8EB
310
42C4FC70F2F2D2CB05941F504B0304140006080800AE513C46ABFCD77A7F000000A30000000B0000006662782F636E782E786D6C4D8CD10E822018465F85FDF7549A866C8023A4F770898E85D0485A8F1F342FBAFAB6B3EF1CD67F5687DE26BE6CF01CAAC30990F1F73059BF7048DB8C3B40BD603184EDEF06C88FABE15030
310
08B6C4909E3B9ACC3C2657A8B3FEB1C3A1BD514A89C24A6B851BDD4ADCE9FA8A87BA5297B3248D94241BC7A2E4F9F5F296BCF802504B0304140006080800AE513C46A6D797065F0000008200000007000000636E782E786D6C4DCB3B0E80201045D1AD90E9FD7516806B51190811670C8A61F982B1B0BAC9C97B72CA7B1037
310
C6D3332918DA1E04D2CAC69353902EDB8C20262D23F3F59B81A079470595414B17391D1F19B4730A5583A7ED43BBE4025D9592775E5ADFFA01504B0304140006080800AE513C464FEB6A7CA0000000F4000000130000005B436F6E74656E745F54797065735D2E786D6C7D8F4B0EC2300C44AF1279DFA6B0400835ED02B801
310
1730C16D239A8F121795DB93D02D6269CFBC19BBED573B8B17C564BC53B0AB1B10E4B47F18372A5878A88E20FAAEBDBD032591BD2E299898C349CAA427B2986A1FC86565F0D122E7318E32A07EE24872DF3407A9BD63725C71C980AEBDD080CBCCE2BAE6F5D69B7110E7CD57AA146008B3D1C8F92C5954F993BB1BF787F39A
310
89ABC491D09600F9FDA2FB00504B0304140006080800AE513C463DEE336E64000000790000001B0000006175746F6465736B2D64657369676E2D7061636B6167652E786D6C35CBC10E83200C00D05F21DCA56CA76D41FC96062B120735B69A7DBE268BB7777961F8D5AF396893C2ADB70FE7ADA196782C2DF776D7A97B5933
310
C430F15651E5469C55D70F80A4992A3ADC954792C525AE70A1E4D6AD9816CC044FEFDF01FE3FDE907802504B0304140006080800AE513C46618FA336F8000000960100003B0000006662782F44354639393937432D434545432D344535412D384532422D4432314336334137344141372F7265736F75726365732F636F7265
310
2E786D6C8550CB6EC32010FC158B3B36E0D871224CE436CA17F4D41B828D8B1283C5A3EAE71712576A4F3D2D9A9D9965869FBE967BF5093E186747446B822AB0CA6963E711A578C503AA4E827BE7E22F1AAAAC5C6044054682CFDEA5758394B3116C41ADD3B081320488A852F7FC1851501FB0C85AA69819E156AF52DDE40C
310
35AD9F3CC153327A931A9DDDCCD5804782B2F3E532F57BBCEB19C1BBA923F8F07AE8F17426EDD052DA4DFB17DE14B1E0D12C3FD79507194123C108ED30A1980D6F941C697B64C33B6F0A53F0107DCEBC1D2DE990F0105CF20A026F9EDB3FAE69D5FFBB266363CB36D7A722E41CF9938F85E04D69298F4785799646C537504B
310
0304140006080800AE513C46BCBF30EBF3000000B1010000310000006662782F44354639393937432D434545432D344535412D384532422D4432314336334137344141372F636F72652E786D6C8D50CB6E833010FC15B4770336A190C838A2847E414FBD59C6A156828DFCA8FAF9B50395DA5B4E6BCDCE7866879EBF977BF6
310
25AD53467780F31232A98599949E3B08FE8A5AC8CE8C5A63FC1F1A649A2FB2830403A3B33561DD2161B4973AA1DA4C7207B973D24326EEF1D181139F72E1390F3E32DC2D5FB9B8F159E638DF788C7AB5FC4A8595DCCB091829718D4A8C48FB8ECB13AE4EA4FDA04562321A829A762B3545777555D202BBD46FC7E3B119D030
310
8E033A8C758FDA91BCA20BC1C34BD53787BE6F6891C48C3A6FE3CDFB27E9BA67E59BF05FE6B04E4F6456DA576437DC140E188E791E0B468B54601C8F76E34C65B31F504B0304140006080800AE513C4652CDAF0853010000DD0200000C0000006662782F636F72652E786D6C8D52DB6E842014FC15C33B0ABAF7201BDBCD7E
310
419FFAC6226BC92A1804B39F5FF012EB43B78D09923967E69C9940CECFA68E7A613AA9550E708C402414D7A554550E9CBDC30388CE9418ADED8F361029D6881C0418505219EDDA09E25A59A102AA74292690759DB020E2B5BFE4A0E35FA2613173D677748FB865FCC12A11E378ECA3C439594E54597A357997C2008AD3CBF5
310
5AECF670B34B11DC145B048FEFC71D2C2E283B64186F8BFD1B490299122B9B793A37825951029A22BC8508C3F4F081D10967A7F4F04992D04949678DF73C0D0DEE00BDDF9E2419F1959E6BCBBFF59C54364B27BD91D179077EBDA1404912F2F1BF21BC75867EB0CFCFB25B3D5B7878A817DC6AB3F19552BBA5D4B3DA092F8D
310
A2E123C958F5CA83C06F3AE90B9DD71A3E28A62ABF1AB3FE7A73364C5FEFD40A037BFB8C94360DAB97E5C615977319B4B234D3B9AEB5F90F7BB63A8799848749BF01504B0304140006080800AE513C46A5F5236707010000B201000008000000636F72652E786D6C8D50416EC32010FC0AE28E0D38769C0813B98DF2829E7A
310
A3401C141B2C83A3F6F785984AEDADA74533B33BC3B0D3E73482875EBC71B683A4C010682B9D3276E8E01AAEA885E0C4D9E25CF82583C08A497730C190B36171EB9C21E96CD036A1D6299D41E1BD0E10C8313E3AE8E54D4FA2106B880A7F2F6621EF62D00529361D67C14C3FAB72D122680539C5A4469820DABE117C24D591
310
B6EFAC4C4ACED6D5A86C6554743757A317C8093D5F2E7DB347BB8662B4EB6B8C0EAF8706F5675CB5152175BF7F61655AE6CC8725FE391F893903F0E2917C59B9519C7D383766410CA580B3E317E4989589F8137A9DD53F421B1B2A9A0F6E1B3E668E819E44344E0DC6F1AC37CED436FF06504B01021400140006080800AE51
310
3C460000000000000000000000003700000000000000000000000000000000006662782F44354639393937432D434545432D344535412D384532422D4432314336334137344141372F617474726962757465732E62696E504B01021400140006080800AE513C46000000000000000000000000350000000000000000000000
310
0000550000006662782F44354639393937432D434545432D344535412D384532422D4432314336334137344141372F76657274696365732E62696E504B01021400140006080800AE513C46F270F13306000000040000003600000000000000000000000000A80000006662782F44354639393937432D434545432D34453541
310
2D384532422D4432314336334137344141372F747269616E676C65732E62696E504B01021400140006080800AE513C4651464CB489000000430100003600000000000000000000000000020100006662782F44354639393937432D434545432D344535412D384532422D4432314336334137344141372F6469726563746F72
310
792E786D6C504B01021400140006080800AE513C4610E80CC339070000201C00003400000000000000000000000000DF0100006662782F44354639393937432D434545432D344535412D384532422D4432314336334137344141372F6F626A656374732E786D6C504B01021400140006080800AE513C4694E47E0F3D010000
310
4605000030000000000000000000000000006A0900006662782F44354639393937432D434545432D344535412D384532422D4432314336334137344141372F636E782E786D6C504B01021400140006080800AE513C46ABFCD77A7F000000A30000000B00000000000000000000000000F50A00006662782F636E782E786D6C
310
504B01021400140006080800AE513C46A6D797065F0000008200000007000000000000000000000000009D0B0000636E782E786D6C504B01021400140006080800AE513C464FEB6A7CA0000000F40000001300000000000000000000000000210C00005B436F6E74656E745F54797065735D2E786D6C504B01021400140006
310
080800AE513C463DEE336E64000000790000001B00000000000000000000000000F20C00006175746F6465736B2D64657369676E2D7061636B6167652E786D6C504B01021400140006080800AE513C46618FA336F8000000960100003B000000000000000000000000008F0D00006662782F44354639393937432D43454543
310
2D344535412D384532422D4432314336334137344141372F7265736F75726365732F636F72652E786D6C504B01021400140006080800AE513C46BCBF30EBF3000000B10100003100000000000000000000000000E00E00006662782F44354639393937432D434545432D344535412D384532422D4432314336334137344141
310
372F636F72652E786D6C504B01021400140006080800AE513C4652CDAF0853010000DD0200000C00000000000000000000000000221000006662782F636F72652E786D6C504B01021400140006080800AE513C46A5F5236707010000B201000008000000000000000000000000009F110000636F72652E786D6C504B050600
310
0000000E000E0080040000CC1200000000
  0
XRECORD
  5
15
102
{ACAD_REACTORS
330
11
102
}
330
11
100
AcDbXrecord
280
     1
270
     1
271
     1
  0
XRECORD
  5
16
102
{ACAD_REACTORS
330
11
102
}
330
11
100
AcDbXrecord
280
     1
270
     1
271
     1
  0
XRECORD
  5
17
102
{ACAD_REACTORS
330
11
102
}
330
11
100
AcDbXrecord
280
     1
270
     1
271
     1
  0
XRECORD
  5
18
102
{ACAD_REACTORS
330
11
102
}
330
11
100
AcDbXrecord
280
     1
270
     1
271
     1
  0
XRECORD
  5
1D3
102
{ACAD_REACTORS
330
1D2
102
}
330
1D2
100
AcDbXrecord
280
     1
102
ACAD_ROUNDTRIP_2012_MLEADER_STYLE
298
     1
  0
XRECORD
  5
216
102
{ACAD_REACTORS
330
215
102
}
330
215
100
AcDbXrecord
280
     1
102
ACAD_ROUNDTRIP_2012_MLEADER_STYLE
298
     1
  0
XRECORD
  5
218
102
{ACAD_REACTORS
330
217
102
}
330
217
100
AcDbXrecord
280
     1
102
DISPLAYNAME
  1
Imperial24
102
FLAGS
 90
        0
  0
CELLSTYLEMAP
  5
1AD
102
{ACAD_REACTORS
330
56
102
}
330
56
100
AcDbCellStyleMap
 90
        3
300
CELLSTYLE
  1
TABLEFORMAT_BEGIN
 90
        5
170
     1
 91
        0
 92
    32768
 62
   257
 93
        1
300
CONTENTFORMAT
  1
CONTENTFORMAT_BEGIN
 90
        0
 91
        0
 92
      512
 93
        0
300

 40
0.0
140
1.0
 94
        5
 62
     0
340
29
144
0.25
309
CONTENTFORMAT_END
171
     0
 94
        0
309
TABLEFORMAT_END
  1
CELLSTYLE_BEGIN
 90
        1
 91
        1
300
_TITLE
309
CELLSTYLE_END
300
CELLSTYLE
  1
TABLEFORMAT_BEGIN
 90
        5
170
     1
 91
        0
 92
        0
 62
   257
 93
        1
300
CONTENTFORMAT
  1
CONTENTFORMAT_BEGIN
 90
        0
 91
        0
 92
      512
 93
        0
300

 40
0.0
140
1.0
 94
        5
 62
     0
340
29
144
0.18
309
CONTENTFORMAT_END
171
     0
 94
        0
309
TABLEFORMAT_END
  1
CELLSTYLE_BEGIN
 90
        2
 91
        1
300
_HEADER
309
CELLSTYLE_END
300
CELLSTYLE
  1
TABLEFORMAT_BEGIN
 90
        5
170
     1
 91
        0
 92
        0
 62
   257
 93
        1
300
CONTENTFORMAT
  1
CONTENTFORMAT_BEGIN
 90
        0
 91
        0
 92
      512
 93
        0
300

 40
0.0
140
1.0
 94
        2
 62
     0
340
29
144
0.18
309
CONTENTFORMAT_END
171
     0
 94
        0
309
TABLEFORMAT_END
  1
CELLSTYLE_BEGIN
 90
        3
 91
        2
300
_DATA
309
CELLSTYLE_END
  0
XRECORD
  5
1BE
102
{ACAD_REACTORS
330
56
102
}
330
56
100
AcDbXrecord
280
     1
102
ACAD_ROUNDTRIP_PRE2007_TABLESTYLE
 90
      512
 91
        0
  1

 92
      512
 93
        0
  2

 94
      512
 95
        0
  3

  0
XRECORD
  5
1BB
102
{ACAD_REACTORS
330
1BA
102
}
330
1BA
100
AcDbXrecord
280
     1
102
RTVSPost2010Prop28
280
     1
102
RTVSPost2010PropOp28
 70
     1
102
RTVSPost2010Prop29
280
     1
102
RTVSPost2010PropOp29
 70
     1
102
RTVSPost2010Prop30
280
     0
102
RTVSPost2010PropOp30
 70
     1
102
RTVSPost2010Prop31
280
     0
102
RTVSPost2010PropOp31
 70
     1
102
RTVSPost2010Prop32
280
     0
102
RTVSPost2010PropOp32
 70
     1
102
RTVSPost2010Prop33
280
     0
102
RTVSPost2010PropOp33
 70
     1
102
RTVSPost2010Prop34
280
     0
102
RTVSPost2010PropOp34
 70
     1
102
RTVSPost2010Prop35
280
     0
102
RTVSPost2010PropOp35
 70
     1
102
RTVSPost2010Prop36
280
     0
102
RTVSPost2010PropOp36
 70
     1
102
RTVSPost2010Prop37
 90
       50
102
RTVSPost2010PropOp37
 70
     1
102
RTVSPost2010Prop38
140
0.0
102
RTVSPost2010PropOp38
 70
     1
102
RTVSPost2010Prop39
140
1.0
102
RTVSPost2010PropOp39
 70
     1
102
RTVSPost2010Prop40
 90
        0
102
RTVSPost2010PropOp40
 70
     1
102
RTVSPost2010Prop41ColorIndex
 90
       18
102
RTVSPost2010Prop41ColorRGB
 90
        0
102
RTVSPost2010PropOp41
 70
     1
102
RTVSPost2010Prop42
 90
       50
102
RTVSPost2010PropOp42
 70
     1
102
RTVSPost2010Prop43
 90
        3
102
RTVSPost2010PropOp43
 70
     1
102
RTVSPost2010Prop44ColorIndex
 90
        5
102
RTVSPost2010Prop44ColorRGB
 90
      255
102
RTVSPost2010PropOp44
 70
     1
102
RTVSPost2010Prop45
280
     0
102
RTVSPost2010PropOp45
 70
     1
102
RTVSPost2010Prop46
 90
       50
102
RTVSPost2010PropOp46
 70
     1
102
RTVSPost2010Prop47
 90
       50
102
RTVSPost2010PropOp47
 70
     1
102
RTVSPost2010Prop48
 90
       50
102
RTVSPost2010PropOp48
 70
     1
102
RTVSPost2010Prop49
280
     0
102
RTVSPost2010PropOp49
 70
     1
102
RTVSPost2010Prop50
 90
       50
102
RTVSPost2010PropOp50
 70
     1
102
RTVSPost2010Prop51ColorIndex
 90
      256
102
RTVSPost2010Prop51ColorRGB
 90
-16777216
102
RTVSPost2010PropOp51
 70
     0
102
RTVSPost2010Prop52
140
1.0
102
RTVSPost2010PropOp52
 70
     0
102
RTVSPost2010Prop53
 90
        2
102
RTVSPost2010PropOp53
 70
     1
102
RTVSPost2010Prop54
  1
strokes_ogs.tif
102
RTVSPost2010PropOp54
 70
     1
102
RTVSPost2010Prop55
280
     0
102
RTVSPost2010PropOp55
 70
     1
102
RTVSPost2010Prop56
140
1.0
102
RTVSPost2010PropOp56
 70
     1
102
RTVSPost2010Prop57
140
1.0
102
RTVSPost2010PropOp57
 70
     1
102
RTVSPropertyOp0
 70
     1
102
RTVSPropertyOp1
 70
     1
102
RTVSPropertyOp2
 70
     1
102
RTVSPropertyOp3
 70
     1
102
RTVSPropertyOp4
 70
     1
102
RTVSPropertyOp5
 70
     1
102
RTVSPropertyOp6
 70
     1
102
RTVSPropertyOp7
 70
     1
102
RTVSPropertyOp8
 70
     1
102
RTVSPropertyOp9
 70
     1
102
RTVSPropertyOp10
 70
     1
102
RTVSPropertyOp11
 70
     1
102
RTVSPropertyOp12
 70
     1
102
RTVSPropertyOp13
 70
     1
102
RTVSPropertyOp14
 70
     1
102
RTVSPropertyOp15
 70
     1
102
RTVSPropertyOp16
 70
     1
102
RTVSPropertyOp17
 70
     1
102
RTVSPropertyOp18
 70
     1
102
RTVSPropertyOp19
 70
     1
102
RTVSPropertyOp20
 70
     1
102
RTVSPropertyOp21
 70
     1
102
RTVSPropertyOp22
 70
     1
102
RTVSPropertyOp23
 70
     1
102
RTVSPropertyOp24
 70
     1
102
RTVSPropertyOp25
 70
     1
102
RTVSPropertyOp26
 70
     1
102
RTVSPropertyOp27
 70
     1
102
RTVSPropertyOp28
 70
     1
102
RTVSPropertyOp29
 70
     1
102
RTVSPropertyOp30
 70
     1
102
RTVSPropertyOp31
 70
     1
102
RTVSPropertyOp32
 70
     1
102
RTVSPropertyOp33
 70
     1
102
RTVSPropertyOp34
 70
     1
102
RTVSPropertyOp35
 70
     1
102
RTVSPropertyOp36
 70
     1
102
RTVSPropertyOp37
 70
     1
102
RTVSPropertyOp38
 70
     1
102
RTVSPropertyOp39
 70
     1
102
RTVSPropertyOp40
 70
     1
102
RTVSPropertyOp41
 70
     1
102
RTVSPropertyOp42
 70
     1
102
RTVSPropertyOp43
 70
     1
102
RTVSPropertyOp44
 70
     1
102
RTVSPropertyOp45
 70
     1
102
RTVSPropertyOp46
 70
     1
102
RTVSPropertyOp47
 70
     1
102
RTVSPropertyOp48
 70
     1
102
RTVSPropertyOp49
 70
     1
102
RTVSPropertyOp50
 70
     1
102
RTVSPropertyOp51
 70
     0
102
RTVSPropertyOp52
 70
     0
102
RTVSPropertyOp53
 70
     1
102
RTVSPropertyOp54
 70
     1
102
RTVSPropertyOp55
 70
     1
102
RTVSPropertyOp56
 70
     1
102
RTVSPropertyOp57
 70
     1
102
RTVSPropertyOp58
 70
     1
102
RTVSPropertyOp59
 70
     1
102
RTVSPropertyOp60
 70
     1
102
RTVSPropertyOp61
 70
     1
102
RTVSPropertyOp62
 70
     1
  0
XRECORD
  5
1F4
102
{ACAD_REACTORS
330
1F3
102
}
330
1F3
100
AcDbXrecord
280
     1
102
RTVSPost2010Prop28
280
     0
102
RTVSPost2010PropOp28
 70
     1
102
RTVSPost2010Prop29
280
     1
102
RTVSPost2010PropOp29
 70
     1
102
RTVSPost2010Prop30
280
     1
102
RTVSPost2010PropOp30
 70
     1
102
RTVSPost2010Prop31
280
     0
102
RTVSPost2010PropOp31
 70
     1
102
RTVSPost2010Prop32
280
     0
102
RTVSPost2010PropOp32
 70
     1
102
RTVSPost2010Prop33
280
     0
102
RTVSPost2010PropOp33
 70
     1
102
RTVSPost2010Prop34
280
     0
102
RTVSPost2010PropOp34
 70
     1
102
RTVSPost2010Prop35
280
     0
102
RTVSPost2010PropOp35
 70
     1
102
RTVSPost2010Prop36
280
     0
102
RTVSPost2010PropOp36
 70
     1
102
RTVSPost2010Prop37
 90
       50
102
RTVSPost2010PropOp37
 70
     1
102
RTVSPost2010Prop38
140
0.0
102
RTVSPost2010PropOp38
 70
     1
102
RTVSPost2010Prop39
140
1.0
102
RTVSPost2010PropOp39
 70
     1
102
RTVSPost2010Prop40
 90
        0
102
RTVSPost2010PropOp40
 70
     1
102
RTVSPost2010Prop41ColorIndex
 90
       18
102
RTVSPost2010Prop41ColorRGB
 90
        0
102
RTVSPost2010PropOp41
 70
     1
102
RTVSPost2010Prop42
 90
       50
102
RTVSPost2010PropOp42
 70
     1
102
RTVSPost2010Prop43
 90
        3
102
RTVSPost2010PropOp43
 70
     1
102
RTVSPost2010Prop44ColorIndex
 90
        5
102
RTVSPost2010Prop44ColorRGB
 90
      255
102
RTVSPost2010PropOp44
 70
     1
102
RTVSPost2010Prop45
280
     0
102
RTVSPost2010PropOp45
 70
     1
102
RTVSPost2010Prop46
 90
       50
102
RTVSPost2010PropOp46
 70
     1
102
RTVSPost2010Prop47
 90
       50
102
RTVSPost2010PropOp47
 70
     1
102
RTVSPost2010Prop48
 90
       50
102
RTVSPost2010PropOp48
 70
     1
102
RTVSPost2010Prop49
280
     0
102
RTVSPost2010PropOp49
 70
     1
102
RTVSPost2010Prop50
 90
       50
102
RTVSPost2010PropOp50
 70
     1
102
RTVSPost2010Prop51ColorIndex
 90
      256
102
RTVSPost2010Prop51ColorRGB
 90
-16777216
102
RTVSPost2010PropOp51
 70
     0
102
RTVSPost2010Prop52
140
1.0
102
RTVSPost2010PropOp52
 70
     0
102
RTVSPost2010Prop53
 90
        2
102
RTVSPost2010PropOp53
 70
     1
102
RTVSPost2010Prop54
  1
strokes_ogs.tif
102
RTVSPost2010PropOp54
 70
     1
102
RTVSPost2010Prop55
280
     0
102
RTVSPost2010PropOp55
 70
     1
102
RTVSPost2010Prop56
140
1.0
102
RTVSPost2010PropOp56
 70
     1
102
RTVSPost2010Prop57
140
1.0
102
RTVSPost2010PropOp57
 70
     1
102
RTVSPropertyOp0
 70
     1
102
RTVSPropertyOp1
 70
     1
102
RTVSPropertyOp2
 70
     1
102
RTVSPropertyOp3
 70
     1
102
RTVSPropertyOp4
 70
     1
102
RTVSPropertyOp5
 70
     1
102
RTVSPropertyOp6
 70
     1
102
RTVSPropertyOp7
 70
     1
102
RTVSPropertyOp8
 70
     1
102
RTVSPropertyOp9
 70
     1
102
RTVSPropertyOp10
 70
     1
102
RTVSPropertyOp11
 70
     1
102
RTVSPropertyOp12
 70
     1
102
RTVSPropertyOp13
 70
     1
102
RTVSPropertyOp14
 70
     1
102
RTVSPropertyOp15
 70
     1
102
RTVSPropertyOp16
 70
     1
102
RTVSPropertyOp17
 70
     1
102
RTVSPropertyOp18
 70
     1
102
RTVSPropertyOp19
 70
     1
102
RTVSPropertyOp20
 70
     1
102
RTVSPropertyOp21
 70
     1
102
RTVSPropertyOp22
 70
     1
102
RTVSPropertyOp23
 70
     1
102
RTVSPropertyOp24
 70
     1
102
RTVSPropertyOp25
 70
     1
102
RTVSPropertyOp26
 70
     1
102
RTVSPropertyOp27
 70
     1
102
RTVSPropertyOp28
 70
     1
102
RTVSPropertyOp29
 70
     1
102
RTVSPropertyOp30
 70
     1
102
RTVSPropertyOp31
 70
     1
102
RTVSPropertyOp32
 70
     1
102
RTVSPropertyOp33
 70
     1
102
RTVSPropertyOp34
 70
     1
102
RTVSPropertyOp35
 70
     1
102
RTVSPropertyOp36
 70
     1
102
RTVSPropertyOp37
 70
     1
102
RTVSPropertyOp38
 70
     1
102
RTVSPropertyOp39
 70
     1
102
RTVSPropertyOp40
 70
     1
102
RTVSPropertyOp41
 70
     1
102
RTVSPropertyOp42
 70
     1
102
RTVSPropertyOp43
 70
     1
102
RTVSPropertyOp44
 70
     1
102
RTVSPropertyOp45
 70
     1
102
RTVSPropertyOp46
 70
     1
102
RTVSPropertyOp47
 70
     1
102
RTVSPropertyOp48
 70
     1
102
RTVSPropertyOp49
 70
     1
102
RTVSPropertyOp50
 70
     1
102
RTVSPropertyOp51
 70
     0
102
RTVSPropertyOp52
 70
     0
102
RTVSPropertyOp53
 70
     1
102
RTVSPropertyOp54
 70
     1
102
RTVSPropertyOp55
 70
     1
102
RTVSPropertyOp56
 70
     1
102
RTVSPropertyOp57
 70
     1
102
RTVSPropertyOp58
 70
     1
102
RTVSPropertyOp59
 70
     1
102
RTVSPropertyOp60
 70
     1
102
RTVSPropertyOp61
 70
     1
102
RTVSPropertyOp62
 70
     1
  0
XRECORD
  5
1FC
102
{ACAD_REACTORS
330
1FB
102
}
330
1FB
100
AcDbXrecord
280
     1
102
RTVSPost2010Prop28
280
     0
102
RTVSPost2010PropOp28
 70
     1
102
RTVSPost2010Prop29
280
     1
102
RTVSPost2010PropOp29
 70
     1
102
RTVSPost2010Prop30
280
     1
102
RTVSPost2010PropOp30
 70
     1
102
RTVSPost2010Prop31
280
     0
102
RTVSPost2010PropOp31
 70
     1
102
RTVSPost2010Prop32
280
     0
102
RTVSPost2010PropOp32
 70
     1
102
RTVSPost2010Prop33
280
     0
102
RTVSPost2010PropOp33
 70
     1
102
RTVSPost2010Prop34
280
     0
102
RTVSPost2010PropOp34
 70
     1
102
RTVSPost2010Prop35
280
     0
102
RTVSPost2010PropOp35
 70
     1
102
RTVSPost2010Prop36
280
     0
102
RTVSPost2010PropOp36
 70
     1
102
RTVSPost2010Prop37
 90
       50
102
RTVSPost2010PropOp37
 70
     1
102
RTVSPost2010Prop38
140
0.0
102
RTVSPost2010PropOp38
 70
     1
102
RTVSPost2010Prop39
140
1.0
102
RTVSPost2010PropOp39
 70
     1
102
RTVSPost2010Prop40
 90
        0
102
RTVSPost2010PropOp40
 70
     1
102
RTVSPost2010Prop41ColorIndex
 90
       18
102
RTVSPost2010Prop41ColorRGB
 90
        0
102
RTVSPost2010PropOp41
 70
     1
102
RTVSPost2010Prop42
 90
       50
102
RTVSPost2010PropOp42
 70
     1
102
RTVSPost2010Prop43
 90
        3
102
RTVSPost2010PropOp43
 70
     1
102
RTVSPost2010Prop44ColorIndex
 90
        5
102
RTVSPost2010Prop44ColorRGB
 90
      255
102
RTVSPost2010PropOp44
 70
     1
102
RTVSPost2010Prop45
280
     0
102
RTVSPost2010PropOp45
 70
     1
102
RTVSPost2010Prop46
 90
       50
102
RTVSPost2010PropOp46
 70
     1
102
RTVSPost2010Prop47
 90
       50
102
RTVSPost2010PropOp47
 70
     1
102
RTVSPost2010Prop48
 90
       50
102
RTVSPost2010PropOp48
 70
     1
102
RTVSPost2010Prop49
280
     0
102
RTVSPost2010PropOp49
 70
     1
102
RTVSPost2010Prop50
 90
       50
102
RTVSPost2010PropOp50
 70
     1
102
RTVSPost2010Prop51ColorIndex
 90
      256
102
RTVSPost2010Prop51ColorRGB
 90
-16777216
102
RTVSPost2010PropOp51
 70
     0
102
RTVSPost2010Prop52
140
1.0
102
RTVSPost2010PropOp52
 70
     0
102
RTVSPost2010Prop53
 90
        2
102
RTVSPost2010PropOp53
 70
     1
102
RTVSPost2010Prop54
  1
strokes_ogs.tif
102
RTVSPost2010PropOp54
 70
     1
102
RTVSPost2010Prop55
280
     0
102
RTVSPost2010PropOp55
 70
     1
102
RTVSPost2010Prop56
140
1.0
102
RTVSPost2010PropOp56
 70
     1
102
RTVSPost2010Prop57
140
1.0
102
RTVSPost2010PropOp57
 70
     1
102
RTVSPropertyOp0
 70
     1
102
RTVSPropertyOp1
 70
     1
102
RTVSPropertyOp2
 70
     1
102
RTVSPropertyOp3
 70
     1
102
RTVSPropertyOp4
 70
     1
102
RTVSPropertyOp5
 70
     1
102
RTVSPropertyOp6
 70
     1
102
RTVSPropertyOp7
 70
     1
102
RTVSPropertyOp8
 70
     1
102
RTVSPropertyOp9
 70
     1
102
RTVSPropertyOp10
 70
     1
102
RTVSPropertyOp11
 70
     1
102
RTVSPropertyOp12
 70
     1
102
RTVSPropertyOp13
 70
     1
102
RTVSPropertyOp14
 70
     1
102
RTVSPropertyOp15
 70
     1
102
RTVSPropertyOp16
 70
     1
102
RTVSPropertyOp17
 70
     1
102
RTVSPropertyOp18
 70
     1
102
RTVSPropertyOp19
 70
     1
102
RTVSPropertyOp20
 70
     1
102
RTVSPropertyOp21
 70
     1
102
RTVSPropertyOp22
 70
     1
102
RTVSPropertyOp23
 70
     1
102
RTVSPropertyOp24
 70
     1
102
RTVSPropertyOp25
 70
     1
102
RTVSPropertyOp26
 70
     1
102
RTVSPropertyOp27
 70
     1
102
RTVSPropertyOp28
 70
     1
102
RTVSPropertyOp29
 70
     1
102
RTVSPropertyOp30
 70
     1
102
RTVSPropertyOp31
 70
     1
102
RTVSPropertyOp32
 70
     1
102
RTVSPropertyOp33
 70
     1
102
RTVSPropertyOp34
 70
     1
102
RTVSPropertyOp35
 70
     1
102
RTVSPropertyOp36
 70
     1
102
RTVSPropertyOp37
 70
     1
102
RTVSPropertyOp38
 70
     1
102
RTVSPropertyOp39
 70
     1
102
RTVSPropertyOp40
 70
     1
102
RTVSPropertyOp41
 70
     1
102
RTVSPropertyOp42
 70
     1
102
RTVSPropertyOp43
 70
     1
102
RTVSPropertyOp44
 70
     1
102
RTVSPropertyOp45
 70
     1
102
RTVSPropertyOp46
 70
     1
102
RTVSPropertyOp47
 70
     1
102
RTVSPropertyOp48
 70
     1
102
RTVSPropertyOp49
 70
     1
102
RTVSPropertyOp50
 70
     1
102
RTVSPropertyOp51
 70
     0
102
RTVSPropertyOp52
 70
     0
102
RTVSPropertyOp53
 70
     1
102
RTVSPropertyOp54
 70
     1
102
RTVSPropertyOp55
 70
     1
102
RTVSPropertyOp56
 70
     1
102
RTVSPropertyOp57
 70
     1
102
RTVSPropertyOp58
 70
     1
102
RTVSPropertyOp59
 70
     1
102
RTVSPropertyOp60
 70
     1
102
RTVSPropertyOp61
 70
     1
102
RTVSPropertyOp62
 70
     1
  0
XRECORD
  5
204
102
{ACAD_REACTORS
330
203
102
}
330
203
100
AcDbXrecord
280
     1
102
RTVSPost2010Prop28
280
     0
102
RTVSPost2010PropOp28
 70
     1
102
RTVSPost2010Prop29
280
     1
102
RTVSPost2010PropOp29
 70
     1
102
RTVSPost2010Prop30
280
     1
102
RTVSPost2010PropOp30
 70
     1
102
RTVSPost2010Prop31
280
     0
102
RTVSPost2010PropOp31
 70
     1
102
RTVSPost2010Prop32
280
     0
102
RTVSPost2010PropOp32
 70
     1
102
RTVSPost2010Prop33
280
     0
102
RTVSPost2010PropOp33
 70
     1
102
RTVSPost2010Prop34
280
     0
102
RTVSPost2010PropOp34
 70
     1
102
RTVSPost2010Prop35
280
     0
102
RTVSPost2010PropOp35
 70
     1
102
RTVSPost2010Prop36
280
     0
102
RTVSPost2010PropOp36
 70
     1
102
RTVSPost2010Prop37
 90
       50
102
RTVSPost2010PropOp37
 70
     1
102
RTVSPost2010Prop38
140
0.0
102
RTVSPost2010PropOp38
 70
     1
102
RTVSPost2010Prop39
140
1.0
102
RTVSPost2010PropOp39
 70
     1
102
RTVSPost2010Prop40
 90
        0
102
RTVSPost2010PropOp40
 70
     1
102
RTVSPost2010Prop41ColorIndex
 90
       18
102
RTVSPost2010Prop41ColorRGB
 90
        0
102
RTVSPost2010PropOp41
 70
     1
102
RTVSPost2010Prop42
 90
       50
102
RTVSPost2010PropOp42
 70
     1
102
RTVSPost2010Prop43
 90
        3
102
RTVSPost2010PropOp43
 70
     1
102
RTVSPost2010Prop44ColorIndex
 90
        5
102
RTVSPost2010Prop44ColorRGB
 90
      255
102
RTVSPost2010PropOp44
 70
     1
102
RTVSPost2010Prop45
280
     0
102
RTVSPost2010PropOp45
 70
     1
102
RTVSPost2010Prop46
 90
       50
102
RTVSPost2010PropOp46
 70
     1
102
RTVSPost2010Prop47
 90
       50
102
RTVSPost2010PropOp47
 70
     1
102
RTVSPost2010Prop48
 90
       50
102
RTVSPost2010PropOp48
 70
     1
102
RTVSPost2010Prop49
280
     0
102
RTVSPost2010PropOp49
 70
     1
102
RTVSPost2010Prop50
 90
       50
102
RTVSPost2010PropOp50
 70
     1
102
RTVSPost2010Prop51ColorIndex
 90
      256
102
RTVSPost2010Prop51ColorRGB
 90
-16777216
102
RTVSPost2010PropOp51
 70
     0
102
RTVSPost2010Prop52
140
1.0
102
RTVSPost2010PropOp52
 70
     0
102
RTVSPost2010Prop53
 90
        2
102
RTVSPost2010PropOp53
 70
     1
102
RTVSPost2010Prop54
  1
strokes_ogs.tif
102
RTVSPost2010PropOp54
 70
     1
102
RTVSPost2010Prop55
280
     0
102
RTVSPost2010PropOp55
 70
     1
102
RTVSPost2010Prop56
140
1.0
102
RTVSPost2010PropOp56
 70
     1
102
RTVSPost2010Prop57
140
1.0
102
RTVSPost2010PropOp57
 70
     1
102
RTVSPropertyOp0
 70
     1
102
RTVSPropertyOp1
 70
     1
102
RTVSPropertyOp2
 70
     1
102
RTVSPropertyOp3
 70
     1
102
RTVSPropertyOp4
 70
     1
102
RTVSPropertyOp5
 70
     1
102
RTVSPropertyOp6
 70
     1
102
RTVSPropertyOp7
 70
     1
102
RTVSPropertyOp8
 70
     1
102
RTVSPropertyOp9
 70
     1
102
RTVSPropertyOp10
 70
     1
102
RTVSPropertyOp11
 70
     1
102
RTVSPropertyOp12
 70
     1
102
RTVSPropertyOp13
 70
     1
102
RTVSPropertyOp14
 70
     1
102
RTVSPropertyOp15
 70
     1
102
RTVSPropertyOp16
 70
     1
102
RTVSPropertyOp17
 70
     1
102
RTVSPropertyOp18
 70
     1
102
RTVSPropertyOp19
 70
     1
102
RTVSPropertyOp20
 70
     1
102
RTVSPropertyOp21
 70
     1
102
RTVSPropertyOp22
 70
     1
102
RTVSPropertyOp23
 70
     1
102
RTVSPropertyOp24
 70
     1
102
RTVSPropertyOp25
 70
     1
102
RTVSPropertyOp26
 70
     1
102
RTVSPropertyOp27
 70
     1
102
RTVSPropertyOp28
 70
     1
102
RTVSPropertyOp29
 70
     1
102
RTVSPropertyOp30
 70
     1
102
RTVSPropertyOp31
 70
     1
102
RTVSPropertyOp32
 70
     1
102
RTVSPropertyOp33
 70
     1
102
RTVSPropertyOp34
 70
     1
102
RTVSPropertyOp35
 70
     1
102
RTVSPropertyOp36
 70
     1
102
RTVSPropertyOp37
 70
     1
102
RTVSPropertyOp38
 70
     1
102
RTVSPropertyOp39
 70
     1
102
RTVSPropertyOp40
 70
     1
102
RTVSPropertyOp41
 70
     1
102
RTVSPropertyOp42
 70
     1
102
RTVSPropertyOp43
 70
     1
102
RTVSPropertyOp44
 70
     1
102
RTVSPropertyOp45
 70
     1
102
RTVSPropertyOp46
 70
     1
102
RTVSPropertyOp47
 70
     1
102
RTVSPropertyOp48
 70
     1
102
RTVSPropertyOp49
 70
     1
102
RTVSPropertyOp50
 70
     1
102
RTVSPropertyOp51
 70
     0
102
RTVSPropertyOp52
 70
     0
102
RTVSPropertyOp53
 70
     1
102
RTVSPropertyOp54
 70
     1
102
RTVSPropertyOp55
 70
     1
102
RTVSPropertyOp56
 70
     1
102
RTVSPropertyOp57
 70
     1
102
RTVSPropertyOp58
 70
     1
102
RTVSPropertyOp59
 70
     1
102
RTVSPropertyOp60
 70
     1
102
RTVSPropertyOp61
 70
     1
102
RTVSPropertyOp62
 70
     1
  0
XRECORD
  5
1F8
102
{ACAD_REACTORS
330
1F7
102
}
330
1F7
100
AcDbXrecord
280
     1
102
RTVSPost2010Prop28
280
     0
102
RTVSPost2010PropOp28
 70
     1
102
RTVSPost2010Prop29
280
     1
102
RTVSPost2010PropOp29
 70
     1
102
RTVSPost2010Prop30
280
     1
102
RTVSPost2010PropOp30
 70
     1
102
RTVSPost2010Prop31
280
     0
102
RTVSPost2010PropOp31
 70
     1
102
RTVSPost2010Prop32
280
     0
102
RTVSPost2010PropOp32
 70
     1
102
RTVSPost2010Prop33
280
     0
102
RTVSPost2010PropOp33
 70
     1
102
RTVSPost2010Prop34
280
     0
102
RTVSPost2010PropOp34
 70
     1
102
RTVSPost2010Prop35
280
     0
102
RTVSPost2010PropOp35
 70
     1
102
RTVSPost2010Prop36
280
     0
102
RTVSPost2010PropOp36
 70
     1
102
RTVSPost2010Prop37
 90
       50
102
RTVSPost2010PropOp37
 70
     1
102
RTVSPost2010Prop38
140
0.0
102
RTVSPost2010PropOp38
 70
     1
102
RTVSPost2010Prop39
140
1.0
102
RTVSPost2010PropOp39
 70
     1
102
RTVSPost2010Prop40
 90
        0
102
RTVSPost2010PropOp40
 70
     1
102
RTVSPost2010Prop41ColorIndex
 90
       18
102
RTVSPost2010Prop41ColorRGB
 90
        0
102
RTVSPost2010PropOp41
 70
     1
102
RTVSPost2010Prop42
 90
       50
102
RTVSPost2010PropOp42
 70
     1
102
RTVSPost2010Prop43
 90
        3
102
RTVSPost2010PropOp43
 70
     1
102
RTVSPost2010Prop44ColorIndex
 90
        5
102
RTVSPost2010Prop44ColorRGB
 90
      255
102
RTVSPost2010PropOp44
 70
     1
102
RTVSPost2010Prop45
280
     0
102
RTVSPost2010PropOp45
 70
     1
102
RTVSPost2010Prop46
 90
       50
102
RTVSPost2010PropOp46
 70
     1
102
RTVSPost2010Prop47
 90
       50
102
RTVSPost2010PropOp47
 70
     1
102
RTVSPost2010Prop48
 90
       50
102
RTVSPost2010PropOp48
 70
     1
102
RTVSPost2010Prop49
280
     0
102
RTVSPost2010PropOp49
 70
     1
102
RTVSPost2010Prop50
 90
       50
102
RTVSPost2010PropOp50
 70
     1
102
RTVSPost2010Prop51ColorIndex
 90
      256
102
RTVSPost2010Prop51ColorRGB
 90
-16777216
102
RTVSPost2010PropOp51
 70
     0
102
RTVSPost2010Prop52
140
1.0
102
RTVSPost2010PropOp52
 70
     0
102
RTVSPost2010Prop53
 90
        2
102
RTVSPost2010PropOp53
 70
     1
102
RTVSPost2010Prop54
  1
strokes_ogs.tif
102
RTVSPost2010PropOp54
 70
     1
102
RTVSPost2010Prop55
280
     0
102
RTVSPost2010PropOp55
 70
     1
102
RTVSPost2010Prop56
140
1.0
102
RTVSPost2010PropOp56
 70
     1
102
RTVSPost2010Prop57
140
1.0
102
RTVSPost2010PropOp57
 70
     1
102
RTVSPropertyOp0
 70
     1
102
RTVSPropertyOp1
 70
     1
102
RTVSPropertyOp2
 70
     1
102
RTVSPropertyOp3
 70
     1
102
RTVSPropertyOp4
 70
     1
102
RTVSPropertyOp5
 70
     1
102
RTVSPropertyOp6
 70
     1
102
RTVSPropertyOp7
 70
     1
102
RTVSPropertyOp8
 70
     1
102
RTVSPropertyOp9
 70
     1
102
RTVSPropertyOp10
 70
     1
102
RTVSPropertyOp11
 70
     1
102
RTVSPropertyOp12
 70
     1
102
RTVSPropertyOp13
 70
     1
102
RTVSPropertyOp14
 70
     1
102
RTVSPropertyOp15
 70
     1
102
RTVSPropertyOp16
 70
     1
102
RTVSPropertyOp17
 70
     1
102
RTVSPropertyOp18
 70
     1
102
RTVSPropertyOp19
 70
     1
102
RTVSPropertyOp20
 70
     1
102
RTVSPropertyOp21
 70
     1
102
RTVSPropertyOp22
 70
     1
102
RTVSPropertyOp23
 70
     1
102
RTVSPropertyOp24
 70
     1
102
RTVSPropertyOp25
 70
     1
102
RTVSPropertyOp26
 70
     1
102
RTVSPropertyOp27
 70
     1
102
RTVSPropertyOp28
 70
     1
102
RTVSPropertyOp29
 70
     1
102
RTVSPropertyOp30
 70
     1
102
RTVSPropertyOp31
 70
     1
102
RTVSPropertyOp32
 70
     1
102
RTVSPropertyOp33
 70
     1
102
RTVSPropertyOp34
 70
     1
102
RTVSPropertyOp35
 70
     1
102
RTVSPropertyOp36
 70
     1
102
RTVSPropertyOp37
 70
     1
102
RTVSPropertyOp38
 70
     1
102
RTVSPropertyOp39
 70
     1
102
RTVSPropertyOp40
 70
     1
102
RTVSPropertyOp41
 70
     1
102
RTVSPropertyOp42
 70
     1
102
RTVSPropertyOp43
 70
     1
102
RTVSPropertyOp44
 70
     1
102
RTVSPropertyOp45
 70
     1
102
RTVSPropertyOp46
 70
     1
102
RTVSPropertyOp47
 70
     1
102
RTVSPropertyOp48
 70
     1
102
RTVSPropertyOp49
 70
     1
102
RTVSPropertyOp50
 70
     1
102
RTVSPropertyOp51
 70
     0
102
RTVSPropertyOp52
 70
     0
102
RTVSPropertyOp53
 70
     1
102
RTVSPropertyOp54
 70
     1
102
RTVSPropertyOp55
 70
     1
102
RTVSPropertyOp56
 70
     1
102
RTVSPropertyOp57
 70
     1
102
RTVSPropertyOp58
 70
     1
102
RTVSPropertyOp59
 70
     1
102
RTVSPropertyOp60
 70
     1
102
RTVSPropertyOp61
 70
     1
102
RTVSPropertyOp62
 70
     1
  0
XRECORD
  5
1FA
102
{ACAD_REACTORS
330
1F9
102
}
330
1F9
100
AcDbXrecord
280
     1
102
RTVSPost2010Prop28
280
     0
102
RTVSPost2010PropOp28
 70
     1
102
RTVSPost2010Prop29
280
     1
102
RTVSPost2010PropOp29
 70
     1
102
RTVSPost2010Prop30
280
     1
102
RTVSPost2010PropOp30
 70
     1
102
RTVSPost2010Prop31
280
     0
102
RTVSPost2010PropOp31
 70
     1
102
RTVSPost2010Prop32
280
     0
102
RTVSPost2010PropOp32
 70
     1
102
RTVSPost2010Prop33
280
     0
102
RTVSPost2010PropOp33
 70
     1
102
RTVSPost2010Prop34
280
     0
102
RTVSPost2010PropOp34
 70
     1
102
RTVSPost2010Prop35
280
     0
102
RTVSPost2010PropOp35
 70
     1
102
RTVSPost2010Prop36
280
     0
102
RTVSPost2010PropOp36
 70
     1
102
RTVSPost2010Prop37
 90
       50
102
RTVSPost2010PropOp37
 70
     1
102
RTVSPost2010Prop38
140
0.0
102
RTVSPost2010PropOp38
 70
     1
102
RTVSPost2010Prop39
140
1.0
102
RTVSPost2010PropOp39
 70
     1
102
RTVSPost2010Prop40
 90
        0
102
RTVSPost2010PropOp40
 70
     1
102
RTVSPost2010Prop41ColorIndex
 90
       18
102
RTVSPost2010Prop41ColorRGB
 90
        0
102
RTVSPost2010PropOp41
 70
     1
102
RTVSPost2010Prop42
 90
       50
102
RTVSPost2010PropOp42
 70
     1
102
RTVSPost2010Prop43
 90
        3
102
RTVSPost2010PropOp43
 70
     1
102
RTVSPost2010Prop44ColorIndex
 90
        5
102
RTVSPost2010Prop44ColorRGB
 90
      255
102
RTVSPost2010PropOp44
 70
     1
102
RTVSPost2010Prop45
280
     0
102
RTVSPost2010PropOp45
 70
     1
102
RTVSPost2010Prop46
 90
       50
102
RTVSPost2010PropOp46
 70
     1
102
RTVSPost2010Prop47
 90
       50
102
RTVSPost2010PropOp47
 70
     1
102
RTVSPost2010Prop48
 90
       50
102
RTVSPost2010PropOp48
 70
     1
102
RTVSPost2010Prop49
280
     0
102
RTVSPost2010PropOp49
 70
     1
102
RTVSPost2010Prop50
 90
       50
102
RTVSPost2010PropOp50
 70
     1
102
RTVSPost2010Prop51ColorIndex
 90
      256
102
RTVSPost2010Prop51ColorRGB
 90
-16777216
102
RTVSPost2010PropOp51
 70
     0
102
RTVSPost2010Prop52
140
1.0
102
RTVSPost2010PropOp52
 70
     0
102
RTVSPost2010Prop53
 90
        2
102
RTVSPost2010PropOp53
 70
     1
102
RTVSPost2010Prop54
  1
strokes_ogs.tif
102
RTVSPost2010PropOp54
 70
     1
102
RTVSPost2010Prop55
280
     0
102
RTVSPost2010PropOp55
 70
     1
102
RTVSPost2010Prop56
140
1.0
102
RTVSPost2010PropOp56
 70
     1
102
RTVSPost2010Prop57
140
1.0
102
RTVSPost2010PropOp57
 70
     1
102
RTVSPropertyOp0
 70
     1
102
RTVSPropertyOp1
 70
     1
102
RTVSPropertyOp2
 70
     1
102
RTVSPropertyOp3
 70
     1
102
RTVSPropertyOp4
 70
     1
102
RTVSPropertyOp5
 70
     1
102
RTVSPropertyOp6
 70
     1
102
RTVSPropertyOp7
 70
     1
102
RTVSPropertyOp8
 70
     1
102
RTVSPropertyOp9
 70
     1
102
RTVSPropertyOp10
 70
     1
102
RTVSPropertyOp11
 70
     1
102
RTVSPropertyOp12
 70
     1
102
RTVSPropertyOp13
 70
     1
102
RTVSPropertyOp14
 70
     1
102
RTVSPropertyOp15
 70
     1
102
RTVSPropertyOp16
 70
     1
102
RTVSPropertyOp17
 70
     1
102
RTVSPropertyOp18
 70
     1
102
RTVSPropertyOp19
 70
     1
102
RTVSPropertyOp20
 70
     1
102
RTVSPropertyOp21
 70
     1
102
RTVSPropertyOp22
 70
     1
102
RTVSPropertyOp23
 70
     1
102
RTVSPropertyOp24
 70
     1
102
RTVSPropertyOp25
 70
     1
102
RTVSPropertyOp26
 70
     1
102
RTVSPropertyOp27
 70
     1
102
RTVSPropertyOp28
 70
     1
102
RTVSPropertyOp29
 70
     1
102
RTVSPropertyOp30
 70
     1
102
RTVSPropertyOp31
 70
     1
102
RTVSPropertyOp32
 70
     1
102
RTVSPropertyOp33
 70
     1
102
RTVSPropertyOp34
 70
     1
102
RTVSPropertyOp35
 70
     1
102
RTVSPropertyOp36
 70
     1
102
RTVSPropertyOp37
 70
     1
102
RTVSPropertyOp38
 70
     1
102
RTVSPropertyOp39
 70
     1
102
RTVSPropertyOp40
 70
     1
102
RTVSPropertyOp41
 70
     1
102
RTVSPropertyOp42
 70
     1
102
RTVSPropertyOp43
 70
     1
102
RTVSPropertyOp44
 70
     1
102
RTVSPropertyOp45
 70
     1
102
RTVSPropertyOp46
 70
     1
102
RTVSPropertyOp47
 70
     1
102
RTVSPropertyOp48
 70
     1
102
RTVSPropertyOp49
 70
     1
102
RTVSPropertyOp50
 70
     1
102
RTVSPropertyOp51
 70
     0
102
RTVSPropertyOp52
 70
     0
102
RTVSPropertyOp53
 70
     1
102
RTVSPropertyOp54
 70
     1
102
RTVSPropertyOp55
 70
     1
102
RTVSPropertyOp56
 70
     1
102
RTVSPropertyOp57
 70
     1
102
RTVSPropertyOp58
 70
     1
102
RTVSPropertyOp59
 70
     1
102
RTVSPropertyOp60
 70
     1
102
RTVSPropertyOp61
 70
     1
102
RTVSPropertyOp62
 70
     1
  0
XRECORD
  5
214
102
{ACAD_REACTORS
330
213
102
}
330
213
100
AcDbXrecord
280
     1
102
RTVSPost2010Prop28
280
     0
102
RTVSPost2010PropOp28
 70
     0
102
RTVSPost2010Prop29
280
     1
102
RTVSPost2010PropOp29
 70
     0
102
RTVSPost2010Prop30
280
     1
102
RTVSPost2010PropOp30
 70
     0
102
RTVSPost2010Prop31
280
     0
102
RTVSPost2010PropOp31
 70
     0
102
RTVSPost2010Prop32
280
     0
102
RTVSPost2010PropOp32
 70
     0
102
RTVSPost2010Prop33
280
     0
102
RTVSPost2010PropOp33
 70
     0
102
RTVSPost2010Prop34
280
     0
102
RTVSPost2010PropOp34
 70
     0
102
RTVSPost2010Prop35
280
     0
102
RTVSPost2010PropOp35
 70
     0
102
RTVSPost2010Prop36
280
     0
102
RTVSPost2010PropOp36
 70
     0
102
RTVSPost2010Prop37
 90
       50
102
RTVSPost2010PropOp37
 70
     0
102
RTVSPost2010Prop38
140
0.0
102
RTVSPost2010PropOp38
 70
     0
102
RTVSPost2010Prop39
140
1.0
102
RTVSPost2010PropOp39
 70
     0
102
RTVSPost2010Prop40
 90
        0
102
RTVSPost2010PropOp40
 70
     0
102
RTVSPost2010Prop41ColorIndex
 90
       18
102
RTVSPost2010Prop41ColorRGB
 90
        0
102
RTVSPost2010PropOp41
 70
     0
102
RTVSPost2010Prop42
 90
       50
102
RTVSPost2010PropOp42
 70
     0
102
RTVSPost2010Prop43
 90
        3
102
RTVSPost2010PropOp43
 70
     0
102
RTVSPost2010Prop44ColorIndex
 90
        5
102
RTVSPost2010Prop44ColorRGB
 90
      255
102
RTVSPost2010PropOp44
 70
     0
102
RTVSPost2010Prop45
280
     0
102
RTVSPost2010PropOp45
 70
     0
102
RTVSPost2010Prop46
 90
       50
102
RTVSPost2010PropOp46
 70
     0
102
RTVSPost2010Prop47
 90
       50
102
RTVSPost2010PropOp47
 70
     0
102
RTVSPost2010Prop48
 90
       50
102
RTVSPost2010PropOp48
 70
     0
102
RTVSPost2010Prop49
280
     0
102
RTVSPost2010PropOp49
 70
     0
102
RTVSPost2010Prop50
 90
       50
102
RTVSPost2010PropOp50
 70
     0
102
RTVSPost2010Prop51ColorIndex
 90
      256
102
RTVSPost2010Prop51ColorRGB
 90
-16777216
102
RTVSPost2010PropOp51
 70
     0
102
RTVSPost2010Prop52
140
1.0
102
RTVSPost2010PropOp52
 70
     0
102
RTVSPost2010Prop53
 90
        2
102
RTVSPost2010PropOp53
 70
     0
102
RTVSPost2010Prop54
  1
strokes_ogs.tif
102
RTVSPost2010PropOp54
 70
     0
102
RTVSPost2010Prop55
280
     0
102
RTVSPost2010PropOp55
 70
     0
102
RTVSPost2010Prop56
140
1.0
102
RTVSPost2010PropOp56
 70
     0
102
RTVSPost2010Prop57
140
1.0
102
RTVSPost2010PropOp57
 70
     0
102
RTVSPropertyOp0
 70
     0
102
RTVSPropertyOp1
 70
     0
102
RTVSPropertyOp2
 70
     0
102
RTVSPropertyOp3
 70
     0
102
RTVSPropertyOp4
 70
     0
102
RTVSPropertyOp5
 70
     0
102
RTVSPropertyOp6
 70
     0
102
RTVSPropertyOp7
 70
     0
102
RTVSPropertyOp8
 70
     0
102
RTVSPropertyOp9
 70
     0
102
RTVSPropertyOp10
 70
     0
102
RTVSPropertyOp11
 70
     0
102
RTVSPropertyOp12
 70
     0
102
RTVSPropertyOp13
 70
     0
102
RTVSPropertyOp14
 70
     2
102
RTVSPropertyOp15
 70
     0
102
RTVSPropertyOp16
 70
     0
102
RTVSPropertyOp17
 70
     0
102
RTVSPropertyOp18
 70
     0
102
RTVSPropertyOp19
 70
     0
102
RTVSPropertyOp20
 70
     0
102
RTVSPropertyOp21
 70
     0
102
RTVSPropertyOp22
 70
     0
102
RTVSPropertyOp23
 70
     0
102
RTVSPropertyOp24
 70
     0
102
RTVSPropertyOp25
 70
     0
102
RTVSPropertyOp26
 70
     0
102
RTVSPropertyOp27
 70
     0
102
RTVSPropertyOp28
 70
     0
102
RTVSPropertyOp29
 70
     0
102
RTVSPropertyOp30
 70
     0
102
RTVSPropertyOp31
 70
     0
102
RTVSPropertyOp32
 70
     0
102
RTVSPropertyOp33
 70
     0
102
RTVSPropertyOp34
 70
     0
102
RTVSPropertyOp35
 70
     0
102
RTVSPropertyOp36
 70
     0
102
RTVSPropertyOp37
 70
     0
102
RTVSPropertyOp38
 70
     0
102
RTVSPropertyOp39
 70
     0
102
RTVSPropertyOp40
 70
     0
102
RTVSPropertyOp41
 70
     0
102
RTVSPropertyOp42
 70
     0
102
RTVSPropertyOp43
 70
     0
102
RTVSPropertyOp44
 70
     0
102
RTVSPropertyOp45
 70
     0
102
RTVSPropertyOp46
 70
     0
102
RTVSPropertyOp47
 70
     0
102
RTVSPropertyOp48
 70
     0
102
RTVSPropertyOp49
 70
     0
102
RTVSPropertyOp50
 70
     0
102
RTVSPropertyOp51
 70
     0
102
RTVSPropertyOp52
 70
     0
102
RTVSPropertyOp53
 70
     0
102
RTVSPropertyOp54
 70
     0
102
RTVSPropertyOp55
 70
     0
102
RTVSPropertyOp56
 70
     0
102
RTVSPropertyOp57
 70
     0
102
RTVSPropertyOp58
 70
     0
102
RTVSPropertyOp59
 70
     0
102
RTVSPropertyOp60
 70
     0
102
RTVSPropertyOp61
 70
     0
102
RTVSPropertyOp62
 70
     0
  0
XRECORD
  5
202
102
{ACAD_REACTORS
330
201
102
}
330
201
100
AcDbXrecord
280
     1
102
RTVSPost2010Prop28
280
     0
102
RTVSPost2010PropOp28
 70
     1
102
RTVSPost2010Prop29
280
     1
102
RTVSPost2010PropOp29
 70
     1
102
RTVSPost2010Prop30
280
     1
102
RTVSPost2010PropOp30
 70
     1
102
RTVSPost2010Prop31
280
     0
102
RTVSPost2010PropOp31
 70
     1
102
RTVSPost2010Prop32
280
     0
102
RTVSPost2010PropOp32
 70
     1
102
RTVSPost2010Prop33
280
     0
102
RTVSPost2010PropOp33
 70
     1
102
RTVSPost2010Prop34
280
     0
102
RTVSPost2010PropOp34
 70
     1
102
RTVSPost2010Prop35
280
     0
102
RTVSPost2010PropOp35
 70
     1
102
RTVSPost2010Prop36
280
     0
102
RTVSPost2010PropOp36
 70
     1
102
RTVSPost2010Prop37
 90
       50
102
RTVSPost2010PropOp37
 70
     1
102
RTVSPost2010Prop38
140
0.0
102
RTVSPost2010PropOp38
 70
     1
102
RTVSPost2010Prop39
140
1.0
102
RTVSPost2010PropOp39
 70
     1
102
RTVSPost2010Prop40
 90
        0
102
RTVSPost2010PropOp40
 70
     1
102
RTVSPost2010Prop41ColorIndex
 90
       18
102
RTVSPost2010Prop41ColorRGB
 90
        0
102
RTVSPost2010PropOp41
 70
     1
102
RTVSPost2010Prop42
 90
       50
102
RTVSPost2010PropOp42
 70
     1
102
RTVSPost2010Prop43
 90
        3
102
RTVSPost2010PropOp43
 70
     1
102
RTVSPost2010Prop44ColorIndex
 90
        5
102
RTVSPost2010Prop44ColorRGB
 90
      255
102
RTVSPost2010PropOp44
 70
     1
102
RTVSPost2010Prop45
280
     0
102
RTVSPost2010PropOp45
 70
     1
102
RTVSPost2010Prop46
 90
       50
102
RTVSPost2010PropOp46
 70
     1
102
RTVSPost2010Prop47
 90
       50
102
RTVSPost2010PropOp47
 70
     1
102
RTVSPost2010Prop48
 90
       50
102
RTVSPost2010PropOp48
 70
     1
102
RTVSPost2010Prop49
280
     0
102
RTVSPost2010PropOp49
 70
     1
102
RTVSPost2010Prop50
 90
       50
102
RTVSPost2010PropOp50
 70
     1
102
RTVSPost2010Prop51ColorIndex
 90
      256
102
RTVSPost2010Prop51ColorRGB
 90
-16777216
102
RTVSPost2010PropOp51
 70
     0
102
RTVSPost2010Prop52
140
1.0
102
RTVSPost2010PropOp52
 70
     0
102
RTVSPost2010Prop53
 90
        2
102
RTVSPost2010PropOp53
 70
     1
102
RTVSPost2010Prop54
  1
strokes_ogs.tif
102
RTVSPost2010PropOp54
 70
     1
102
RTVSPost2010Prop55
280
     0
102
RTVSPost2010PropOp55
 70
     1
102
RTVSPost2010Prop56
140
1.0
102
RTVSPost2010PropOp56
 70
     1
102
RTVSPost2010Prop57
140
1.0
102
RTVSPost2010PropOp57
 70
     1
102
RTVSPropertyOp0
 70
     1
102
RTVSPropertyOp1
 70
     1
102
RTVSPropertyOp2
 70
     1
102
RTVSPropertyOp3
 70
     1
102
RTVSPropertyOp4
 70
     1
102
RTVSPropertyOp5
 70
     1
102
RTVSPropertyOp6
 70
     1
102
RTVSPropertyOp7
 70
     1
102
RTVSPropertyOp8
 70
     1
102
RTVSPropertyOp9
 70
     1
102
RTVSPropertyOp10
 70
     1
102
RTVSPropertyOp11
 70
     1
102
RTVSPropertyOp12
 70
     1
102
RTVSPropertyOp13
 70
     1
102
RTVSPropertyOp14
 70
     1
102
RTVSPropertyOp15
 70
     1
102
RTVSPropertyOp16
 70
     1
102
RTVSPropertyOp17
 70
     1
102
RTVSPropertyOp18
 70
     1
102
RTVSPropertyOp19
 70
     1
102
RTVSPropertyOp20
 70
     1
102
RTVSPropertyOp21
 70
     1
102
RTVSPropertyOp22
 70
     1
102
RTVSPropertyOp23
 70
     1
102
RTVSPropertyOp24
 70
     1
102
RTVSPropertyOp25
 70
     1
102
RTVSPropertyOp26
 70
     1
102
RTVSPropertyOp27
 70
     1
102
RTVSPropertyOp28
 70
     1
102
RTVSPropertyOp29
 70
     1
102
RTVSPropertyOp30
 70
     1
102
RTVSPropertyOp31
 70
     1
102
RTVSPropertyOp32
 70
     1
102
RTVSPropertyOp33
 70
     1
102
RTVSPropertyOp34
 70
     1
102
RTVSPropertyOp35
 70
     1
102
RTVSPropertyOp36
 70
     1
102
RTVSPropertyOp37
 70
     1
102
RTVSPropertyOp38
 70
     1
102
RTVSPropertyOp39
 70
     1
102
RTVSPropertyOp40
 70
     1
102
RTVSPropertyOp41
 70
     1
102
RTVSPropertyOp42
 70
     1
102
RTVSPropertyOp43
 70
     1
102
RTVSPropertyOp44
 70
     1
102
RTVSPropertyOp45
 70
     1
102
RTVSPropertyOp46
 70
     1
102
RTVSPropertyOp47
 70
     1
102
RTVSPropertyOp48
 70
     1
102
RTVSPropertyOp49
 70
     1
102
RTVSPropertyOp50
 70
     1
102
RTVSPropertyOp51
 70
     0
102
RTVSPropertyOp52
 70
     0
102
RTVSPropertyOp53
 70
     1
102
RTVSPropertyOp54
 70
     1
102
RTVSPropertyOp55
 70
     1
102
RTVSPropertyOp56
 70
     1
102
RTVSPropertyOp57
 70
     1
102
RTVSPropertyOp58
 70
     1
102
RTVSPropertyOp59
 70
     1
102
RTVSPropertyOp60
 70
     1
102
RTVSPropertyOp61
 70
     1
102
RTVSPropertyOp62
 70
     1
  0
XRECORD
  5
1EC
102
{ACAD_REACTORS
330
1EB
102
}
330
1EB
100
AcDbXrecord
280
     1
102
RTVSPost2010Prop28
280
     0
102
RTVSPost2010PropOp28
 70
     1
102
RTVSPost2010Prop29
280
     1
102
RTVSPost2010PropOp29
 70
     1
102
RTVSPost2010Prop30
280
     1
102
RTVSPost2010PropOp30
 70
     1
102
RTVSPost2010Prop31
280
     0
102
RTVSPost2010PropOp31
 70
     1
102
RTVSPost2010Prop32
280
     0
102
RTVSPost2010PropOp32
 70
     1
102
RTVSPost2010Prop33
280
     0
102
RTVSPost2010PropOp33
 70
     1
102
RTVSPost2010Prop34
280
     0
102
RTVSPost2010PropOp34
 70
     1
102
RTVSPost2010Prop35
280
     0
102
RTVSPost2010PropOp35
 70
     1
102
RTVSPost2010Prop36
280
     0
102
RTVSPost2010PropOp36
 70
     1
102
RTVSPost2010Prop37
 90
       50
102
RTVSPost2010PropOp37
 70
     1
102
RTVSPost2010Prop38
140
0.0
102
RTVSPost2010PropOp38
 70
     1
102
RTVSPost2010Prop39
140
1.0
102
RTVSPost2010PropOp39
 70
     1
102
RTVSPost2010Prop40
 90
        0
102
RTVSPost2010PropOp40
 70
     1
102
RTVSPost2010Prop41ColorIndex
 90
       18
102
RTVSPost2010Prop41ColorRGB
 90
        0
102
RTVSPost2010PropOp41
 70
     1
102
RTVSPost2010Prop42
 90
       50
102
RTVSPost2010PropOp42
 70
     1
102
RTVSPost2010Prop43
 90
        3
102
RTVSPost2010PropOp43
 70
     1
102
RTVSPost2010Prop44ColorIndex
 90
        5
102
RTVSPost2010Prop44ColorRGB
 90
      255
102
RTVSPost2010PropOp44
 70
     1
102
RTVSPost2010Prop45
280
     0
102
RTVSPost2010PropOp45
 70
     1
102
RTVSPost2010Prop46
 90
       50
102
RTVSPost2010PropOp46
 70
     1
102
RTVSPost2010Prop47
 90
       50
102
RTVSPost2010PropOp47
 70
     1
102
RTVSPost2010Prop48
 90
       50
102
RTVSPost2010PropOp48
 70
     1
102
RTVSPost2010Prop49
280
     0
102
RTVSPost2010PropOp49
 70
     1
102
RTVSPost2010Prop50
 90
       50
102
RTVSPost2010PropOp50
 70
     1
102
RTVSPost2010Prop51ColorIndex
 90
      256
102
RTVSPost2010Prop51ColorRGB
 90
-16777216
102
RTVSPost2010PropOp51
 70
     0
102
RTVSPost2010Prop52
140
1.0
102
RTVSPost2010PropOp52
 70
     0
102
RTVSPost2010Prop53
 90
        2
102
RTVSPost2010PropOp53
 70
     1
102
RTVSPost2010Prop54
  1
strokes_ogs.tif
102
RTVSPost2010PropOp54
 70
     1
102
RTVSPost2010Prop55
280
     0
102
RTVSPost2010PropOp55
 70
     1
102
RTVSPost2010Prop56
140
1.0
102
RTVSPost2010PropOp56
 70
     1
102
RTVSPost2010Prop57
140
1.0
102
RTVSPost2010PropOp57
 70
     1
102
RTVSPropertyOp0
 70
     1
102
RTVSPropertyOp1
 70
     1
102
RTVSPropertyOp2
 70
     1
102
RTVSPropertyOp3
 70
     1
102
RTVSPropertyOp4
 70
     1
102
RTVSPropertyOp5
 70
     1
102
RTVSPropertyOp6
 70
     1
102
RTVSPropertyOp7
 70
     1
102
RTVSPropertyOp8
 70
     1
102
RTVSPropertyOp9
 70
     1
102
RTVSPropertyOp10
 70
     1
102
RTVSPropertyOp11
 70
     1
102
RTVSPropertyOp12
 70
     1
102
RTVSPropertyOp13
 70
     1
102
RTVSPropertyOp14
 70
     1
102
RTVSPropertyOp15
 70
     1
102
RTVSPropertyOp16
 70
     1
102
RTVSPropertyOp17
 70
     1
102
RTVSPropertyOp18
 70
     1
102
RTVSPropertyOp19
 70
     1
102
RTVSPropertyOp20
 70
     1
102
RTVSPropertyOp21
 70
     1
102
RTVSPropertyOp22
 70
     1
102
RTVSPropertyOp23
 70
     1
102
RTVSPropertyOp24
 70
     1
102
RTVSPropertyOp25
 70
     1
102
RTVSPropertyOp26
 70
     1
102
RTVSPropertyOp27
 70
     1
102
RTVSPropertyOp28
 70
     1
102
RTVSPropertyOp29
 70
     1
102
RTVSPropertyOp30
 70
     1
102
RTVSPropertyOp31
 70
     1
102
RTVSPropertyOp32
 70
     1
102
RTVSPropertyOp33
 70
     1
102
RTVSPropertyOp34
 70
     1
102
RTVSPropertyOp35
 70
     1
102
RTVSPropertyOp36
 70
     1
102
RTVSPropertyOp37
 70
     1
102
RTVSPropertyOp38
 70
     1
102
RTVSPropertyOp39
 70
     1
102
RTVSPropertyOp40
 70
     1
102
RTVSPropertyOp41
 70
     1
102
RTVSPropertyOp42
 70
     1
102
RTVSPropertyOp43
 70
     1
102
RTVSPropertyOp44
 70
     1
102
RTVSPropertyOp45
 70
     1
102
RTVSPropertyOp46
 70
     1
102
RTVSPropertyOp47
 70
     1
102
RTVSPropertyOp48
 70
     1
102
RTVSPropertyOp49
 70
     1
102
RTVSPropertyOp50
 70
     1
102
RTVSPropertyOp51
 70
     0
102
RTVSPropertyOp52
 70
     0
102
RTVSPropertyOp53
 70
     1
102
RTVSPropertyOp54
 70
     1
102
RTVSPropertyOp55
 70
     1
102
RTVSPropertyOp56
 70
     1
102
RTVSPropertyOp57
 70
     1
102
RTVSPropertyOp58
 70
     1
102
RTVSPropertyOp59
 70
     1
102
RTVSPropertyOp60
 70
     1
102
RTVSPropertyOp61
 70
     1
102
RTVSPropertyOp62
 70
     1
  0
XRECORD
  5
1EE
102
{ACAD_REACTORS
330
1ED
102
}
330
1ED
100
AcDbXrecord
280
     1
102
RTVSPost2010Prop28
280
     0
102
RTVSPost2010PropOp28
 70
     1
102
RTVSPost2010Prop29
280
     1
102
RTVSPost2010PropOp29
 70
     1
102
RTVSPost2010Prop30
280
     1
102
RTVSPost2010PropOp30
 70
     1
102
RTVSPost2010Prop31
280
     0
102
RTVSPost2010PropOp31
 70
     1
102
RTVSPost2010Prop32
280
     0
102
RTVSPost2010PropOp32
 70
     1
102
RTVSPost2010Prop33
280
     0
102
RTVSPost2010PropOp33
 70
     1
102
RTVSPost2010Prop34
280
     0
102
RTVSPost2010PropOp34
 70
     1
102
RTVSPost2010Prop35
280
     0
102
RTVSPost2010PropOp35
 70
     1
102
RTVSPost2010Prop36
280
     0
102
RTVSPost2010PropOp36
 70
     1
102
RTVSPost2010Prop37
 90
       50
102
RTVSPost2010PropOp37
 70
     1
102
RTVSPost2010Prop38
140
0.0
102
RTVSPost2010PropOp38
 70
     1
102
RTVSPost2010Prop39
140
1.0
102
RTVSPost2010PropOp39
 70
     1
102
RTVSPost2010Prop40
 90
        0
102
RTVSPost2010PropOp40
 70
     1
102
RTVSPost2010Prop41ColorIndex
 90
       18
102
RTVSPost2010Prop41ColorRGB
 90
        0
102
RTVSPost2010PropOp41
 70
     1
102
RTVSPost2010Prop42
 90
       50
102
RTVSPost2010PropOp42
 70
     1
102
RTVSPost2010Prop43
 90
        3
102
RTVSPost2010PropOp43
 70
     1
102
RTVSPost2010Prop44ColorIndex
 90
        5
102
RTVSPost2010Prop44ColorRGB
 90
      255
102
RTVSPost2010PropOp44
 70
     1
102
RTVSPost2010Prop45
280
     0
102
RTVSPost2010PropOp45
 70
     1
102
RTVSPost2010Prop46
 90
       50
102
RTVSPost2010PropOp46
 70
     1
102
RTVSPost2010Prop47
 90
       50
102
RTVSPost2010PropOp47
 70
     1
102
RTVSPost2010Prop48
 90
       50
102
RTVSPost2010PropOp48
 70
     1
102
RTVSPost2010Prop49
280
     0
102
RTVSPost2010PropOp49
 70
     1
102
RTVSPost2010Prop50
 90
       50
102
RTVSPost2010PropOp50
 70
     1
102
RTVSPost2010Prop51ColorIndex
 90
      256
102
RTVSPost2010Prop51ColorRGB
 90
-16777216
102
RTVSPost2010PropOp51
 70
     0
102
RTVSPost2010Prop52
140
1.0
102
RTVSPost2010PropOp52
 70
     0
102
RTVSPost2010Prop53
 90
        2
102
RTVSPost2010PropOp53
 70
     1
102
RTVSPost2010Prop54
  1
strokes_ogs.tif
102
RTVSPost2010PropOp54
 70
     1
102
RTVSPost2010Prop55
280
     0
102
RTVSPost2010PropOp55
 70
     1
102
RTVSPost2010Prop56
140
1.0
102
RTVSPost2010PropOp56
 70
     1
102
RTVSPost2010Prop57
140
1.0
102
RTVSPost2010PropOp57
 70
     1
102
RTVSPropertyOp0
 70
     1
102
RTVSPropertyOp1
 70
     1
102
RTVSPropertyOp2
 70
     1
102
RTVSPropertyOp3
 70
     1
102
RTVSPropertyOp4
 70
     1
102
RTVSPropertyOp5
 70
     1
102
RTVSPropertyOp6
 70
     1
102
RTVSPropertyOp7
 70
     1
102
RTVSPropertyOp8
 70
     1
102
RTVSPropertyOp9
 70
     1
102
RTVSPropertyOp10
 70
     1
102
RTVSPropertyOp11
 70
     1
102
RTVSPropertyOp12
 70
     1
102
RTVSPropertyOp13
 70
     1
102
RTVSPropertyOp14
 70
     1
102
RTVSPropertyOp15
 70
     1
102
RTVSPropertyOp16
 70
     1
102
RTVSPropertyOp17
 70
     1
102
RTVSPropertyOp18
 70
     1
102
RTVSPropertyOp19
 70
     1
102
RTVSPropertyOp20
 70
     1
102
RTVSPropertyOp21
 70
     1
102
RTVSPropertyOp22
 70
     1
102
RTVSPropertyOp23
 70
     1
102
RTVSPropertyOp24
 70
     1
102
RTVSPropertyOp25
 70
     1
102
RTVSPropertyOp26
 70
     1
102
RTVSPropertyOp27
 70
     1
102
RTVSPropertyOp28
 70
     1
102
RTVSPropertyOp29
 70
     1
102
RTVSPropertyOp30
 70
     1
102
RTVSPropertyOp31
 70
     1
102
RTVSPropertyOp32
 70
     1
102
RTVSPropertyOp33
 70
     1
102
RTVSPropertyOp34
 70
     1
102
RTVSPropertyOp35
 70
     1
102
RTVSPropertyOp36
 70
     1
102
RTVSPropertyOp37
 70
     1
102
RTVSPropertyOp38
 70
     1
102
RTVSPropertyOp39
 70
     1
102
RTVSPropertyOp40
 70
     1
102
RTVSPropertyOp41
 70
     1
102
RTVSPropertyOp42
 70
     1
102
RTVSPropertyOp43
 70
     1
102
RTVSPropertyOp44
 70
     1
102
RTVSPropertyOp45
 70
     1
102
RTVSPropertyOp46
 70
     1
102
RTVSPropertyOp47
 70
     1
102
RTVSPropertyOp48
 70
     1
102
RTVSPropertyOp49
 70
     1
102
RTVSPropertyOp50
 70
     1
102
RTVSPropertyOp51
 70
     0
102
RTVSPropertyOp52
 70
     0
102
RTVSPropertyOp53
 70
     1
102
RTVSPropertyOp54
 70
     1
102
RTVSPropertyOp55
 70
     1
102
RTVSPropertyOp56
 70
     1
102
RTVSPropertyOp57
 70
     1
102
RTVSPropertyOp58
 70
     1
102
RTVSPropertyOp59
 70
     1
102
RTVSPropertyOp60
 70
     1
102
RTVSPropertyOp61
 70
     1
102
RTVSPropertyOp62
 70
     1
  0
XRECORD
  5
1F0
102
{ACAD_REACTORS
330
1EF
102
}
330
1EF
100
AcDbXrecord
280
     1
102
RTVSPost2010Prop28
280
     0
102
RTVSPost2010PropOp28
 70
     1
102
RTVSPost2010Prop29
280
     1
102
RTVSPost2010PropOp29
 70
     1
102
RTVSPost2010Prop30
280
     1
102
RTVSPost2010PropOp30
 70
     1
102
RTVSPost2010Prop31
280
     0
102
RTVSPost2010PropOp31
 70
     1
102
RTVSPost2010Prop32
280
     0
102
RTVSPost2010PropOp32
 70
     1
102
RTVSPost2010Prop33
280
     0
102
RTVSPost2010PropOp33
 70
     1
102
RTVSPost2010Prop34
280
     0
102
RTVSPost2010PropOp34
 70
     1
102
RTVSPost2010Prop35
280
     0
102
RTVSPost2010PropOp35
 70
     1
102
RTVSPost2010Prop36
280
     0
102
RTVSPost2010PropOp36
 70
     1
102
RTVSPost2010Prop37
 90
       50
102
RTVSPost2010PropOp37
 70
     1
102
RTVSPost2010Prop38
140
0.0
102
RTVSPost2010PropOp38
 70
     1
102
RTVSPost2010Prop39
140
1.0
102
RTVSPost2010PropOp39
 70
     1
102
RTVSPost2010Prop40
 90
        0
102
RTVSPost2010PropOp40
 70
     1
102
RTVSPost2010Prop41ColorIndex
 90
       18
102
RTVSPost2010Prop41ColorRGB
 90
        0
102
RTVSPost2010PropOp41
 70
     1
102
RTVSPost2010Prop42
 90
       50
102
RTVSPost2010PropOp42
 70
     1
102
RTVSPost2010Prop43
 90
        3
102
RTVSPost2010PropOp43
 70
     1
102
RTVSPost2010Prop44ColorIndex
 90
        5
102
RTVSPost2010Prop44ColorRGB
 90
      255
102
RTVSPost2010PropOp44
 70
     1
102
RTVSPost2010Prop45
280
     0
102
RTVSPost2010PropOp45
 70
     1
102
RTVSPost2010Prop46
 90
       50
102
RTVSPost2010PropOp46
 70
     1
102
RTVSPost2010Prop47
 90
       50
102
RTVSPost2010PropOp47
 70
     1
102
RTVSPost2010Prop48
 90
       50
102
RTVSPost2010PropOp48
 70
     1
102
RTVSPost2010Prop49
280
     0
102
RTVSPost2010PropOp49
 70
     1
102
RTVSPost2010Prop50
 90
       50
102
RTVSPost2010PropOp50
 70
     1
102
RTVSPost2010Prop51ColorIndex
 90
      256
102
RTVSPost2010Prop51ColorRGB
 90
-16777216
102
RTVSPost2010PropOp51
 70
     0
102
RTVSPost2010Prop52
140
1.0
102
RTVSPost2010PropOp52
 70
     0
102
RTVSPost2010Prop53
 90
        2
102
RTVSPost2010PropOp53
 70
     1
102
RTVSPost2010Prop54
  1
strokes_ogs.tif
102
RTVSPost2010PropOp54
 70
     1
102
RTVSPost2010Prop55
280
     0
102
RTVSPost2010PropOp55
 70
     1
102
RTVSPost2010Prop56
140
1.0
102
RTVSPost2010PropOp56
 70
     1
102
RTVSPost2010Prop57
140
1.0
102
RTVSPost2010PropOp57
 70
     1
102
RTVSPropertyOp0
 70
     1
102
RTVSPropertyOp1
 70
     1
102
RTVSPropertyOp2
 70
     1
102
RTVSPropertyOp3
 70
     1
102
RTVSPropertyOp4
 70
     1
102
RTVSPropertyOp5
 70
     1
102
RTVSPropertyOp6
 70
     1
102
RTVSPropertyOp7
 70
     1
102
RTVSPropertyOp8
 70
     1
102
RTVSPropertyOp9
 70
     1
102
RTVSPropertyOp10
 70
     1
102
RTVSPropertyOp11
 70
     1
102
RTVSPropertyOp12
 70
     1
102
RTVSPropertyOp13
 70
     1
102
RTVSPropertyOp14
 70
     1
102
RTVSPropertyOp15
 70
     1
102
RTVSPropertyOp16
 70
     1
102
RTVSPropertyOp17
 70
     1
102
RTVSPropertyOp18
 70
     1
102
RTVSPropertyOp19
 70
     1
102
RTVSPropertyOp20
 70
     1
102
RTVSPropertyOp21
 70
     1
102
RTVSPropertyOp22
 70
     1
102
RTVSPropertyOp23
 70
     1
102
RTVSPropertyOp24
 70
     1
102
RTVSPropertyOp25
 70
     1
102
RTVSPropertyOp26
 70
     1
102
RTVSPropertyOp27
 70
     1
102
RTVSPropertyOp28
 70
     1
102
RTVSPropertyOp29
 70
     1
102
RTVSPropertyOp30
 70
     1
102
RTVSPropertyOp31
 70
     1
102
RTVSPropertyOp32
 70
     1
102
RTVSPropertyOp33
 70
     1
102
RTVSPropertyOp34
 70
     1
102
RTVSPropertyOp35
 70
     1
102
RTVSPropertyOp36
 70
     1
102
RTVSPropertyOp37
 70
     1
102
RTVSPropertyOp38
 70
     1
102
RTVSPropertyOp39
 70
     1
102
RTVSPropertyOp40
 70
     1
102
RTVSPropertyOp41
 70
     1
102
RTVSPropertyOp42
 70
     1
102
RTVSPropertyOp43
 70
     1
102
RTVSPropertyOp44
 70
     1
102
RTVSPropertyOp45
 70
     1
102
RTVSPropertyOp46
 70
     1
102
RTVSPropertyOp47
 70
     1
102
RTVSPropertyOp48
 70
     1
102
RTVSPropertyOp49
 70
     1
102
RTVSPropertyOp50
 70
     1
102
RTVSPropertyOp51
 70
     0
102
RTVSPropertyOp52
 70
     0
102
RTVSPropertyOp53
 70
     1
102
RTVSPropertyOp54
 70
     1
102
RTVSPropertyOp55
 70
     1
102
RTVSPropertyOp56
 70
     1
102
RTVSPropertyOp57
 70
     1
102
RTVSPropertyOp58
 70
     1
102
RTVSPropertyOp59
 70
     1
102
RTVSPropertyOp60
 70
     1
102
RTVSPropertyOp61
 70
     1
102
RTVSPropertyOp62
 70
     1
  0
XRECORD
  5
1F2
102
{ACAD_REACTORS
330
1F1
102
}
330
1F1
100
AcDbXrecord
280
     1
102
RTVSPost2010Prop28
280
     0
102
RTVSPost2010PropOp28
 70
     1
102
RTVSPost2010Prop29
280
     1
102
RTVSPost2010PropOp29
 70
     1
102
RTVSPost2010Prop30
280
     1
102
RTVSPost2010PropOp30
 70
     1
102
RTVSPost2010Prop31
280
     0
102
RTVSPost2010PropOp31
 70
     1
102
RTVSPost2010Prop32
280
     0
102
RTVSPost2010PropOp32
 70
     1
102
RTVSPost2010Prop33
280
     0
102
RTVSPost2010PropOp33
 70
     1
102
RTVSPost2010Prop34
280
     0
102
RTVSPost2010PropOp34
 70
     1
102
RTVSPost2010Prop35
280
     0
102
RTVSPost2010PropOp35
 70
     1
102
RTVSPost2010Prop36
280
     0
102
RTVSPost2010PropOp36
 70
     1
102
RTVSPost2010Prop37
 90
       50
102
RTVSPost2010PropOp37
 70
     1
102
RTVSPost2010Prop38
140
0.0
102
RTVSPost2010PropOp38
 70
     1
102
RTVSPost2010Prop39
140
1.0
102
RTVSPost2010PropOp39
 70
     1
102
RTVSPost2010Prop40
 90
        0
102
RTVSPost2010PropOp40
 70
     1
102
RTVSPost2010Prop41ColorIndex
 90
       18
102
RTVSPost2010Prop41ColorRGB
 90
        0
102
RTVSPost2010PropOp41
 70
     1
102
RTVSPost2010Prop42
 90
       50
102
RTVSPost2010PropOp42
 70
     1
102
RTVSPost2010Prop43
 90
        3
102
RTVSPost2010PropOp43
 70
     1
102
RTVSPost2010Prop44ColorIndex
 90
        5
102
RTVSPost2010Prop44ColorRGB
 90
      255
102
RTVSPost2010PropOp44
 70
     1
102
RTVSPost2010Prop45
280
     0
102
RTVSPost2010PropOp45
 70
     1
102
RTVSPost2010Prop46
 90
       50
102
RTVSPost2010PropOp46
 70
     1
102
RTVSPost2010Prop47
 90
       50
102
RTVSPost2010PropOp47
 70
     1
102
RTVSPost2010Prop48
 90
       50
102
RTVSPost2010PropOp48
 70
     1
102
RTVSPost2010Prop49
280
     0
102
RTVSPost2010PropOp49
 70
     1
102
RTVSPost2010Prop50
 90
       50
102
RTVSPost2010PropOp50
 70
     1
102
RTVSPost2010Prop51ColorIndex
 90
      256
102
RTVSPost2010Prop51ColorRGB
 90
-16777216
102
RTVSPost2010PropOp51
 70
     0
102
RTVSPost2010Prop52
140
1.0
102
RTVSPost2010PropOp52
 70
     0
102
RTVSPost2010Prop53
 90
        2
102
RTVSPost2010PropOp53
 70
     1
102
RTVSPost2010Prop54
  1
strokes_ogs.tif
102
RTVSPost2010PropOp54
 70
     1
102
RTVSPost2010Prop55
280
     0
102
RTVSPost2010PropOp55
 70
     1
102
RTVSPost2010Prop56
140
1.0
102
RTVSPost2010PropOp56
 70
     1
102
RTVSPost2010Prop57
140
1.0
102
RTVSPost2010PropOp57
 70
     1
102
RTVSPropertyOp0
 70
     1
102
RTVSPropertyOp1
 70
     1
102
RTVSPropertyOp2
 70
     1
102
RTVSPropertyOp3
 70
     1
102
RTVSPropertyOp4
 70
     1
102
RTVSPropertyOp5
 70
     1
102
RTVSPropertyOp6
 70
     1
102
RTVSPropertyOp7
 70
     1
102
RTVSPropertyOp8
 70
     1
102
RTVSPropertyOp9
 70
     1
102
RTVSPropertyOp10
 70
     1
102
RTVSPropertyOp11
 70
     1
102
RTVSPropertyOp12
 70
     1
102
RTVSPropertyOp13
 70
     1
102
RTVSPropertyOp14
 70
     1
102
RTVSPropertyOp15
 70
     1
102
RTVSPropertyOp16
 70
     1
102
RTVSPropertyOp17
 70
     1
102
RTVSPropertyOp18
 70
     1
102
RTVSPropertyOp19
 70
     1
102
RTVSPropertyOp20
 70
     1
102
RTVSPropertyOp21
 70
     1
102
RTVSPropertyOp22
 70
     1
102
RTVSPropertyOp23
 70
     1
102
RTVSPropertyOp24
 70
     1
102
RTVSPropertyOp25
 70
     1
102
RTVSPropertyOp26
 70
     1
102
RTVSPropertyOp27
 70
     1
102
RTVSPropertyOp28
 70
     1
102
RTVSPropertyOp29
 70
     1
102
RTVSPropertyOp30
 70
     1
102
RTVSPropertyOp31
 70
     1
102
RTVSPropertyOp32
 70
     1
102
RTVSPropertyOp33
 70
     1
102
RTVSPropertyOp34
 70
     1
102
RTVSPropertyOp35
 70
     1
102
RTVSPropertyOp36
 70
     1
102
RTVSPropertyOp37
 70
     1
102
RTVSPropertyOp38
 70
     1
102
RTVSPropertyOp39
 70
     1
102
RTVSPropertyOp40
 70
     1
102
RTVSPropertyOp41
 70
     1
102
RTVSPropertyOp42
 70
     1
102
RTVSPropertyOp43
 70
     1
102
RTVSPropertyOp44
 70
     1
102
RTVSPropertyOp45
 70
     1
102
RTVSPropertyOp46
 70
     1
102
RTVSPropertyOp47
 70
     1
102
RTVSPropertyOp48
 70
     1
102
RTVSPropertyOp49
 70
     1
102
RTVSPropertyOp50
 70
     1
102
RTVSPropertyOp51
 70
     0
102
RTVSPropertyOp52
 70
     0
102
RTVSPropertyOp53
 70
     1
102
RTVSPropertyOp54
 70
     1
102
RTVSPropertyOp55
 70
     1
102
RTVSPropertyOp56
 70
     1
102
RTVSPropertyOp57
 70
     1
102
RTVSPropertyOp58
 70
     1
102
RTVSPropertyOp59
 70
     1
102
RTVSPropertyOp60
 70
     1
102
RTVSPropertyOp61
 70
     1
102
RTVSPropertyOp62
 70
     1
  0
XRECORD
  5
1F6
102
{ACAD_REACTORS
330
1F5
102
}
330
1F5
100
AcDbXrecord
280
     1
102
RTVSPost2010Prop28
280
     0
102
RTVSPost2010PropOp28
 70
     1
102
RTVSPost2010Prop29
280
     1
102
RTVSPost2010PropOp29
 70
     1
102
RTVSPost2010Prop30
280
     1
102
RTVSPost2010PropOp30
 70
     1
102
RTVSPost2010Prop31
280
     0
102
RTVSPost2010PropOp31
 70
     1
102
RTVSPost2010Prop32
280
     0
102
RTVSPost2010PropOp32
 70
     1
102
RTVSPost2010Prop33
280
     0
102
RTVSPost2010PropOp33
 70
     1
102
RTVSPost2010Prop34
280
     0
102
RTVSPost2010PropOp34
 70
     1
102
RTVSPost2010Prop35
280
     0
102
RTVSPost2010PropOp35
 70
     1
102
RTVSPost2010Prop36
280
     0
102
RTVSPost2010PropOp36
 70
     1
102
RTVSPost2010Prop37
 90
       50
102
RTVSPost2010PropOp37
 70
     1
102
RTVSPost2010Prop38
140
0.0
102
RTVSPost2010PropOp38
 70
     1
102
RTVSPost2010Prop39
140
1.0
102
RTVSPost2010PropOp39
 70
     1
102
RTVSPost2010Prop40
 90
        0
102
RTVSPost2010PropOp40
 70
     1
102
RTVSPost2010Prop41ColorIndex
 90
       18
102
RTVSPost2010Prop41ColorRGB
 90
        0
102
RTVSPost2010PropOp41
 70
     1
102
RTVSPost2010Prop42
 90
       50
102
RTVSPost2010PropOp42
 70
     1
102
RTVSPost2010Prop43
 90
        3
102
RTVSPost2010PropOp43
 70
     1
102
RTVSPost2010Prop44ColorIndex
 90
        5
102
RTVSPost2010Prop44ColorRGB
 90
      255
102
RTVSPost2010PropOp44
 70
     1
102
RTVSPost2010Prop45
280
     0
102
RTVSPost2010PropOp45
 70
     1
102
RTVSPost2010Prop46
 90
       50
102
RTVSPost2010PropOp46
 70
     1
102
RTVSPost2010Prop47
 90
       50
102
RTVSPost2010PropOp47
 70
     1
102
RTVSPost2010Prop48
 90
       50
102
RTVSPost2010PropOp48
 70
     1
102
RTVSPost2010Prop49
280
     0
102
RTVSPost2010PropOp49
 70
     1
102
RTVSPost2010Prop50
 90
       50
102
RTVSPost2010PropOp50
 70
     1
102
RTVSPost2010Prop51ColorIndex
 90
      256
102
RTVSPost2010Prop51ColorRGB
 90
-16777216
102
RTVSPost2010PropOp51
 70
     0
102
RTVSPost2010Prop52
140
1.0
102
RTVSPost2010PropOp52
 70
     0
102
RTVSPost2010Prop53
 90
        2
102
RTVSPost2010PropOp53
 70
     1
102
RTVSPost2010Prop54
  1
strokes_ogs.tif
102
RTVSPost2010PropOp54
 70
     1
102
RTVSPost2010Prop55
280
     0
102
RTVSPost2010PropOp55
 70
     1
102
RTVSPost2010Prop56
140
1.0
102
RTVSPost2010PropOp56
 70
     1
102
RTVSPost2010Prop57
140
1.0
102
RTVSPost2010PropOp57
 70
     1
102
RTVSPropertyOp0
 70
     1
102
RTVSPropertyOp1
 70
     1
102
RTVSPropertyOp2
 70
     1
102
RTVSPropertyOp3
 70
     1
102
RTVSPropertyOp4
 70
     1
102
RTVSPropertyOp5
 70
     1
102
RTVSPropertyOp6
 70
     1
102
RTVSPropertyOp7
 70
     1
102
RTVSPropertyOp8
 70
     1
102
RTVSPropertyOp9
 70
     1
102
RTVSPropertyOp10
 70
     1
102
RTVSPropertyOp11
 70
     1
102
RTVSPropertyOp12
 70
     1
102
RTVSPropertyOp13
 70
     1
102
RTVSPropertyOp14
 70
     1
102
RTVSPropertyOp15
 70
     1
102
RTVSPropertyOp16
 70
     1
102
RTVSPropertyOp17
 70
     1
102
RTVSPropertyOp18
 70
     1
102
RTVSPropertyOp19
 70
     1
102
RTVSPropertyOp20
 70
     1
102
RTVSPropertyOp21
 70
     1
102
RTVSPropertyOp22
 70
     1
102
RTVSPropertyOp23
 70
     1
102
RTVSPropertyOp24
 70
     1
102
RTVSPropertyOp25
 70
     1
102
RTVSPropertyOp26
 70
     1
102
RTVSPropertyOp27
 70
     1
102
RTVSPropertyOp28
 70
     1
102
RTVSPropertyOp29
 70
     1
102
RTVSPropertyOp30
 70
     1
102
RTVSPropertyOp31
 70
     1
102
RTVSPropertyOp32
 70
     1
102
RTVSPropertyOp33
 70
     1
102
RTVSPropertyOp34
 70
     1
102
RTVSPropertyOp35
 70
     1
102
RTVSPropertyOp36
 70
     1
102
RTVSPropertyOp37
 70
     1
102
RTVSPropertyOp38
 70
     1
102
RTVSPropertyOp39
 70
     1
102
RTVSPropertyOp40
 70
     1
102
RTVSPropertyOp41
 70
     1
102
RTVSPropertyOp42
 70
     1
102
RTVSPropertyOp43
 70
     1
102
RTVSPropertyOp44
 70
     1
102
RTVSPropertyOp45
 70
     1
102
RTVSPropertyOp46
 70
     1
102
RTVSPropertyOp47
 70
     1
102
RTVSPropertyOp48
 70
     1
102
RTVSPropertyOp49
 70
     1
102
RTVSPropertyOp50
 70
     1
102
RTVSPropertyOp51
 70
     0
102
RTVSPropertyOp52
 70
     0
102
RTVSPropertyOp53
 70
     1
102
RTVSPropertyOp54
 70
     1
102
RTVSPropertyOp55
 70
     1
102
RTVSPropertyOp56
 70
     1
102
RTVSPropertyOp57
 70
     1
102
RTVSPropertyOp58
 70
     1
102
RTVSPropertyOp59
 70
     1
102
RTVSPropertyOp60
 70
     1
102
RTVSPropertyOp61
 70
     1
102
RTVSPropertyOp62
 70
     1
  0
XRECORD
  5
210
102
{ACAD_REACTORS
330
20F
102
}
330
20F
100
AcDbXrecord
280
     1
102
RTVSPost2010Prop28
280
     0
102
RTVSPost2010PropOp28
 70
     0
102
RTVSPost2010Prop29
280
     1
102
RTVSPost2010PropOp29
 70
     0
102
RTVSPost2010Prop30
280
     1
102
RTVSPost2010PropOp30
 70
     0
102
RTVSPost2010Prop31
280
     0
102
RTVSPost2010PropOp31
 70
     0
102
RTVSPost2010Prop32
280
     0
102
RTVSPost2010PropOp32
 70
     0
102
RTVSPost2010Prop33
280
     0
102
RTVSPost2010PropOp33
 70
     0
102
RTVSPost2010Prop34
280
     0
102
RTVSPost2010PropOp34
 70
     0
102
RTVSPost2010Prop35
280
     0
102
RTVSPost2010PropOp35
 70
     0
102
RTVSPost2010Prop36
280
     0
102
RTVSPost2010PropOp36
 70
     0
102
RTVSPost2010Prop37
 90
       50
102
RTVSPost2010PropOp37
 70
     0
102
RTVSPost2010Prop38
140
0.0
102
RTVSPost2010PropOp38
 70
     0
102
RTVSPost2010Prop39
140
1.0
102
RTVSPost2010PropOp39
 70
     0
102
RTVSPost2010Prop40
 90
        0
102
RTVSPost2010PropOp40
 70
     0
102
RTVSPost2010Prop41ColorIndex
 90
       18
102
RTVSPost2010Prop41ColorRGB
 90
        0
102
RTVSPost2010PropOp41
 70
     0
102
RTVSPost2010Prop42
 90
       50
102
RTVSPost2010PropOp42
 70
     0
102
RTVSPost2010Prop43
 90
        3
102
RTVSPost2010PropOp43
 70
     0
102
RTVSPost2010Prop44ColorIndex
 90
        5
102
RTVSPost2010Prop44ColorRGB
 90
      255
102
RTVSPost2010PropOp44
 70
     0
102
RTVSPost2010Prop45
280
     0
102
RTVSPost2010PropOp45
 70
     0
102
RTVSPost2010Prop46
 90
       50
102
RTVSPost2010PropOp46
 70
     0
102
RTVSPost2010Prop47
 90
       50
102
RTVSPost2010PropOp47
 70
     0
102
RTVSPost2010Prop48
 90
       50
102
RTVSPost2010PropOp48
 70
     0
102
RTVSPost2010Prop49
280
     0
102
RTVSPost2010PropOp49
 70
     0
102
RTVSPost2010Prop50
 90
       50
102
RTVSPost2010PropOp50
 70
     0
102
RTVSPost2010Prop51ColorIndex
 90
      256
102
RTVSPost2010Prop51ColorRGB
 90
-16777216
102
RTVSPost2010PropOp51
 70
     0
102
RTVSPost2010Prop52
140
1.0
102
RTVSPost2010PropOp52
 70
     0
102
RTVSPost2010Prop53
 90
        2
102
RTVSPost2010PropOp53
 70
     0
102
RTVSPost2010Prop54
  1
strokes_ogs.tif
102
RTVSPost2010PropOp54
 70
     0
102
RTVSPost2010Prop55
280
     0
102
RTVSPost2010PropOp55
 70
     0
102
RTVSPost2010Prop56
140
1.0
102
RTVSPost2010PropOp56
 70
     0
102
RTVSPost2010Prop57
140
1.0
102
RTVSPost2010PropOp57
 70
     0
102
RTVSPropertyOp0
 70
     0
102
RTVSPropertyOp1
 70
     0
102
RTVSPropertyOp2
 70
     0
102
RTVSPropertyOp3
 70
     0
102
RTVSPropertyOp4
 70
     0
102
RTVSPropertyOp5
 70
     0
102
RTVSPropertyOp6
 70
     0
102
RTVSPropertyOp7
 70
     0
102
RTVSPropertyOp8
 70
     0
102
RTVSPropertyOp9
 70
     0
102
RTVSPropertyOp10
 70
     0
102
RTVSPropertyOp11
 70
     0
102
RTVSPropertyOp12
 70
     0
102
RTVSPropertyOp13
 70
     0
102
RTVSPropertyOp14
 70
     2
102
RTVSPropertyOp15
 70
     0
102
RTVSPropertyOp16
 70
     0
102
RTVSPropertyOp17
 70
     0
102
RTVSPropertyOp18
 70
     0
102
RTVSPropertyOp19
 70
     0
102
RTVSPropertyOp20
 70
     0
102
RTVSPropertyOp21
 70
     0
102
RTVSPropertyOp22
 70
     0
102
RTVSPropertyOp23
 70
     0
102
RTVSPropertyOp24
 70
     0
102
RTVSPropertyOp25
 70
     0
102
RTVSPropertyOp26
 70
     0
102
RTVSPropertyOp27
 70
     0
102
RTVSPropertyOp28
 70
     0
102
RTVSPropertyOp29
 70
     0
102
RTVSPropertyOp30
 70
     0
102
RTVSPropertyOp31
 70
     0
102
RTVSPropertyOp32
 70
     0
102
RTVSPropertyOp33
 70
     0
102
RTVSPropertyOp34
 70
     0
102
RTVSPropertyOp35
 70
     0
102
RTVSPropertyOp36
 70
     0
102
RTVSPropertyOp37
 70
     0
102
RTVSPropertyOp38
 70
     0
102
RTVSPropertyOp39
 70
     0
102
RTVSPropertyOp40
 70
     0
102
RTVSPropertyOp41
 70
     0
102
RTVSPropertyOp42
 70
     0
102
RTVSPropertyOp43
 70
     0
102
RTVSPropertyOp44
 70
     0
102
RTVSPropertyOp45
 70
     0
102
RTVSPropertyOp46
 70
     0
102
RTVSPropertyOp47
 70
     0
102
RTVSPropertyOp48
 70
     0
102
RTVSPropertyOp49
 70
     0
102
RTVSPropertyOp50
 70
     0
102
RTVSPropertyOp51
 70
     0
102
RTVSPropertyOp52
 70
     0
102
RTVSPropertyOp53
 70
     0
102
RTVSPropertyOp54
 70
     0
102
RTVSPropertyOp55
 70
     0
102
RTVSPropertyOp56
 70
     0
102
RTVSPropertyOp57
 70
     0
102
RTVSPropertyOp58
 70
     0
102
RTVSPropertyOp59
 70
     0
102
RTVSPropertyOp60
 70
     0
102
RTVSPropertyOp61
 70
     0
102
RTVSPropertyOp62
 70
     0
  0
XRECORD
  5
200
102
{ACAD_REACTORS
330
1FF
102
}
330
1FF
100
AcDbXrecord
280
     1
102
RTVSPost2010Prop28
280
     0
102
RTVSPost2010PropOp28
 70
     1
102
RTVSPost2010Prop29
280
     1
102
RTVSPost2010PropOp29
 70
     1
102
RTVSPost2010Prop30
280
     1
102
RTVSPost2010PropOp30
 70
     1
102
RTVSPost2010Prop31
280
     0
102
RTVSPost2010PropOp31
 70
     1
102
RTVSPost2010Prop32
280
     0
102
RTVSPost2010PropOp32
 70
     1
102
RTVSPost2010Prop33
280
     0
102
RTVSPost2010PropOp33
 70
     1
102
RTVSPost2010Prop34
280
     0
102
RTVSPost2010PropOp34
 70
     1
102
RTVSPost2010Prop35
280
     0
102
RTVSPost2010PropOp35
 70
     1
102
RTVSPost2010Prop36
280
     0
102
RTVSPost2010PropOp36
 70
     1
102
RTVSPost2010Prop37
 90
       50
102
RTVSPost2010PropOp37
 70
     1
102
RTVSPost2010Prop38
140
0.0
102
RTVSPost2010PropOp38
 70
     1
102
RTVSPost2010Prop39
140
1.0
102
RTVSPost2010PropOp39
 70
     1
102
RTVSPost2010Prop40
 90
        0
102
RTVSPost2010PropOp40
 70
     1
102
RTVSPost2010Prop41ColorIndex
 90
       18
102
RTVSPost2010Prop41ColorRGB
 90
        0
102
RTVSPost2010PropOp41
 70
     1
102
RTVSPost2010Prop42
 90
       50
102
RTVSPost2010PropOp42
 70
     1
102
RTVSPost2010Prop43
 90
        3
102
RTVSPost2010PropOp43
 70
     1
102
RTVSPost2010Prop44ColorIndex
 90
        5
102
RTVSPost2010Prop44ColorRGB
 90
      255
102
RTVSPost2010PropOp44
 70
     1
102
RTVSPost2010Prop45
280
     0
102
RTVSPost2010PropOp45
 70
     1
102
RTVSPost2010Prop46
 90
       50
102
RTVSPost2010PropOp46
 70
     1
102
RTVSPost2010Prop47
 90
       50
102
RTVSPost2010PropOp47
 70
     1
102
RTVSPost2010Prop48
 90
       50
102
RTVSPost2010PropOp48
 70
     1
102
RTVSPost2010Prop49
280
     0
102
RTVSPost2010PropOp49
 70
     1
102
RTVSPost2010Prop50
 90
       50
102
RTVSPost2010PropOp50
 70
     1
102
RTVSPost2010Prop51ColorIndex
 90
      256
102
RTVSPost2010Prop51ColorRGB
 90
-16777216
102
RTVSPost2010PropOp51
 70
     0
102
RTVSPost2010Prop52
140
1.0
102
RTVSPost2010PropOp52
 70
     0
102
RTVSPost2010Prop53
 90
        2
102
RTVSPost2010PropOp53
 70
     1
102
RTVSPost2010Prop54
  1
strokes_ogs.tif
102
RTVSPost2010PropOp54
 70
     1
102
RTVSPost2010Prop55
280
     0
102
RTVSPost2010PropOp55
 70
     1
102
RTVSPost2010Prop56
140
1.0
102
RTVSPost2010PropOp56
 70
     1
102
RTVSPost2010Prop57
140
1.0
102
RTVSPost2010PropOp57
 70
     1
102
RTVSPropertyOp0
 70
     1
102
RTVSPropertyOp1
 70
     1
102
RTVSPropertyOp2
 70
     1
102
RTVSPropertyOp3
 70
     1
102
RTVSPropertyOp4
 70
     1
102
RTVSPropertyOp5
 70
     1
102
RTVSPropertyOp6
 70
     1
102
RTVSPropertyOp7
 70
     1
102
RTVSPropertyOp8
 70
     1
102
RTVSPropertyOp9
 70
     1
102
RTVSPropertyOp10
 70
     1
102
RTVSPropertyOp11
 70
     1
102
RTVSPropertyOp12
 70
     1
102
RTVSPropertyOp13
 70
     1
102
RTVSPropertyOp14
 70
     1
102
RTVSPropertyOp15
 70
     1
102
RTVSPropertyOp16
 70
     1
102
RTVSPropertyOp17
 70
     1
102
RTVSPropertyOp18
 70
     1
102
RTVSPropertyOp19
 70
     1
102
RTVSPropertyOp20
 70
     1
102
RTVSPropertyOp21
 70
     1
102
RTVSPropertyOp22
 70
     1
102
RTVSPropertyOp23
 70
     1
102
RTVSPropertyOp24
 70
     1
102
RTVSPropertyOp25
 70
     1
102
RTVSPropertyOp26
 70
     1
102
RTVSPropertyOp27
 70
     1
102
RTVSPropertyOp28
 70
     1
102
RTVSPropertyOp29
 70
     1
102
RTVSPropertyOp30
 70
     1
102
RTVSPropertyOp31
 70
     1
102
RTVSPropertyOp32
 70
     1
102
RTVSPropertyOp33
 70
     1
102
RTVSPropertyOp34
 70
     1
102
RTVSPropertyOp35
 70
     1
102
RTVSPropertyOp36
 70
     1
102
RTVSPropertyOp37
 70
     1
102
RTVSPropertyOp38
 70
     1
102
RTVSPropertyOp39
 70
     1
102
RTVSPropertyOp40
 70
     1
102
RTVSPropertyOp41
 70
     1
102
RTVSPropertyOp42
 70
     1
102
RTVSPropertyOp43
 70
     1
102
RTVSPropertyOp44
 70
     1
102
RTVSPropertyOp45
 70
     1
102
RTVSPropertyOp46
 70
     1
102
RTVSPropertyOp47
 70
     1
102
RTVSPropertyOp48
 70
     1
102
RTVSPropertyOp49
 70
     1
102
RTVSPropertyOp50
 70
     1
102
RTVSPropertyOp51
 70
     0
102
RTVSPropertyOp52
 70
     0
102
RTVSPropertyOp53
 70
     1
102
RTVSPropertyOp54
 70
     1
102
RTVSPropertyOp55
 70
     1
102
RTVSPropertyOp56
 70
     1
102
RTVSPropertyOp57
 70
     1
102
RTVSPropertyOp58
 70
     1
102
RTVSPropertyOp59
 70
     1
102
RTVSPropertyOp60
 70
     1
102
RTVSPropertyOp61
 70
     1
102
RTVSPropertyOp62
 70
     1
  0
XRECORD
  5
212
102
{ACAD_REACTORS
330
211
102
}
330
211
100
AcDbXrecord
280
     1
102
RTVSPost2010Prop28
280
     0
102
RTVSPost2010PropOp28
 70
     0
102
RTVSPost2010Prop29
280
     1
102
RTVSPost2010PropOp29
 70
     0
102
RTVSPost2010Prop30
280
     1
102
RTVSPost2010PropOp30
 70
     0
102
RTVSPost2010Prop31
280
     0
102
RTVSPost2010PropOp31
 70
     0
102
RTVSPost2010Prop32
280
     0
102
RTVSPost2010PropOp32
 70
     0
102
RTVSPost2010Prop33
280
     0
102
RTVSPost2010PropOp33
 70
     0
102
RTVSPost2010Prop34
280
     0
102
RTVSPost2010PropOp34
 70
     0
102
RTVSPost2010Prop35
280
     0
102
RTVSPost2010PropOp35
 70
     0
102
RTVSPost2010Prop36
280
     0
102
RTVSPost2010PropOp36
 70
     0
102
RTVSPost2010Prop37
 90
       50
102
RTVSPost2010PropOp37
 70
     0
102
RTVSPost2010Prop38
140
0.0
102
RTVSPost2010PropOp38
 70
     0
102
RTVSPost2010Prop39
140
1.0
102
RTVSPost2010PropOp39
 70
     0
102
RTVSPost2010Prop40
 90
        0
102
RTVSPost2010PropOp40
 70
     0
102
RTVSPost2010Prop41ColorIndex
 90
       18
102
RTVSPost2010Prop41ColorRGB
 90
        0
102
RTVSPost2010PropOp41
 70
     0
102
RTVSPost2010Prop42
 90
       50
102
RTVSPost2010PropOp42
 70
     0
102
RTVSPost2010Prop43
 90
        3
102
RTVSPost2010PropOp43
 70
     0
102
RTVSPost2010Prop44ColorIndex
 90
        5
102
RTVSPost2010Prop44ColorRGB
 90
      255
102
RTVSPost2010PropOp44
 70
     0
102
RTVSPost2010Prop45
280
     0
102
RTVSPost2010PropOp45
 70
     0
102
RTVSPost2010Prop46
 90
       50
102
RTVSPost2010PropOp46
 70
     0
102
RTVSPost2010Prop47
 90
       50
102
RTVSPost2010PropOp47
 70
     0
102
RTVSPost2010Prop48
 90
       50
102
RTVSPost2010PropOp48
 70
     0
102
RTVSPost2010Prop49
280
     0
102
RTVSPost2010PropOp49
 70
     0
102
RTVSPost2010Prop50
 90
       50
102
RTVSPost2010PropOp50
 70
     0
102
RTVSPost2010Prop51ColorIndex
 90
      256
102
RTVSPost2010Prop51ColorRGB
 90
-16777216
102
RTVSPost2010PropOp51
 70
     0
102
RTVSPost2010Prop52
140
1.0
102
RTVSPost2010PropOp52
 70
     0
102
RTVSPost2010Prop53
 90
        2
102
RTVSPost2010PropOp53
 70
     0
102
RTVSPost2010Prop54
  1
strokes_ogs.tif
102
RTVSPost2010PropOp54
 70
     0
102
RTVSPost2010Prop55
280
     0
102
RTVSPost2010PropOp55
 70
     0
102
RTVSPost2010Prop56
140
1.0
102
RTVSPost2010PropOp56
 70
     0
102
RTVSPost2010Prop57
140
1.0
102
RTVSPost2010PropOp57
 70
     0
102
RTVSPropertyOp0
 70
     0
102
RTVSPropertyOp1
 70
     0
102
RTVSPropertyOp2
 70
     0
102
RTVSPropertyOp3
 70
     0
102
RTVSPropertyOp4
 70
     0
102
RTVSPropertyOp5
 70
     0
102
RTVSPropertyOp6
 70
     0
102
RTVSPropertyOp7
 70
     0
102
RTVSPropertyOp8
 70
     0
102
RTVSPropertyOp9
 70
     0
102
RTVSPropertyOp10
 70
     0
102
RTVSPropertyOp11
 70
     0
102
RTVSPropertyOp12
 70
     0
102
RTVSPropertyOp13
 70
     0
102
RTVSPropertyOp14
 70
     2
102
RTVSPropertyOp15
 70
     0
102
RTVSPropertyOp16
 70
     0
102
RTVSPropertyOp17
 70
     0
102
RTVSPropertyOp18
 70
     0
102
RTVSPropertyOp19
 70
     0
102
RTVSPropertyOp20
 70
     0
102
RTVSPropertyOp21
 70
     0
102
RTVSPropertyOp22
 70
     0
102
RTVSPropertyOp23
 70
     0
102
RTVSPropertyOp24
 70
     0
102
RTVSPropertyOp25
 70
     0
102
RTVSPropertyOp26
 70
     0
102
RTVSPropertyOp27
 70
     0
102
RTVSPropertyOp28
 70
     0
102
RTVSPropertyOp29
 70
     0
102
RTVSPropertyOp30
 70
     0
102
RTVSPropertyOp31
 70
     0
102
RTVSPropertyOp32
 70
     0
102
RTVSPropertyOp33
 70
     0
102
RTVSPropertyOp34
 70
     0
102
RTVSPropertyOp35
 70
     0
102
RTVSPropertyOp36
 70
     0
102
RTVSPropertyOp37
 70
     0
102
RTVSPropertyOp38
 70
     0
102
RTVSPropertyOp39
 70
     0
102
RTVSPropertyOp40
 70
     0
102
RTVSPropertyOp41
 70
     0
102
RTVSPropertyOp42
 70
     0
102
RTVSPropertyOp43
 70
     0
102
RTVSPropertyOp44
 70
     0
102
RTVSPropertyOp45
 70
     0
102
RTVSPropertyOp46
 70
     0
102
RTVSPropertyOp47
 70
     0
102
RTVSPropertyOp48
 70
     0
102
RTVSPropertyOp49
 70
     0
102
RTVSPropertyOp50
 70
     0
102
RTVSPropertyOp51
 70
     0
102
RTVSPropertyOp52
 70
     0
102
RTVSPropertyOp53
 70
     0
102
RTVSPropertyOp54
 70
     0
102
RTVSPropertyOp55
 70
     0
102
RTVSPropertyOp56
 70
     0
102
RTVSPropertyOp57
 70
     0
102
RTVSPropertyOp58
 70
     0
102
RTVSPropertyOp59
 70
     0
102
RTVSPropertyOp60
 70
     0
102
RTVSPropertyOp61
 70
     0
102
RTVSPropertyOp62
 70
     0
  0
XRECORD
  5
1C0
102
{ACAD_REACTORS
330
1BF
102
}
330
1BF
100
AcDbXrecord
280
     1
102
RTVSPost2010Prop28
280
     0
102
RTVSPost2010PropOp28
 70
     1
102
RTVSPost2010Prop29
280
     1
102
RTVSPost2010PropOp29
 70
     1
102
RTVSPost2010Prop30
280
     1
102
RTVSPost2010PropOp30
 70
     1
102
RTVSPost2010Prop31
280
     0
102
RTVSPost2010PropOp31
 70
     1
102
RTVSPost2010Prop32
280
     0
102
RTVSPost2010PropOp32
 70
     1
102
RTVSPost2010Prop33
280
     0
102
RTVSPost2010PropOp33
 70
     1
102
RTVSPost2010Prop34
280
     0
102
RTVSPost2010PropOp34
 70
     1
102
RTVSPost2010Prop35
280
     0
102
RTVSPost2010PropOp35
 70
     1
102
RTVSPost2010Prop36
280
     0
102
RTVSPost2010PropOp36
 70
     1
102
RTVSPost2010Prop37
 90
       50
102
RTVSPost2010PropOp37
 70
     1
102
RTVSPost2010Prop38
140
0.0
102
RTVSPost2010PropOp38
 70
     1
102
RTVSPost2010Prop39
140
1.0
102
RTVSPost2010PropOp39
 70
     1
102
RTVSPost2010Prop40
 90
        0
102
RTVSPost2010PropOp40
 70
     1
102
RTVSPost2010Prop41ColorIndex
 90
       18
102
RTVSPost2010Prop41ColorRGB
 90
        0
102
RTVSPost2010PropOp41
 70
     1
102
RTVSPost2010Prop42
 90
       50
102
RTVSPost2010PropOp42
 70
     1
102
RTVSPost2010Prop43
 90
        3
102
RTVSPost2010PropOp43
 70
     1
102
RTVSPost2010Prop44ColorIndex
 90
        5
102
RTVSPost2010Prop44ColorRGB
 90
      255
102
RTVSPost2010PropOp44
 70
     1
102
RTVSPost2010Prop45
280
     0
102
RTVSPost2010PropOp45
 70
     1
102
RTVSPost2010Prop46
 90
       50
102
RTVSPost2010PropOp46
 70
     1
102
RTVSPost2010Prop47
 90
       50
102
RTVSPost2010PropOp47
 70
     1
102
RTVSPost2010Prop48
 90
       50
102
RTVSPost2010PropOp48
 70
     1
102
RTVSPost2010Prop49
280
     0
102
RTVSPost2010PropOp49
 70
     1
102
RTVSPost2010Prop50
 90
       50
102
RTVSPost2010PropOp50
 70
     1
102
RTVSPost2010Prop51ColorIndex
 90
      256
102
RTVSPost2010Prop51ColorRGB
 90
-16777216
102
RTVSPost2010PropOp51
 70
     0
102
RTVSPost2010Prop52
140
1.0
102
RTVSPost2010PropOp52
 70
     0
102
RTVSPost2010Prop53
 90
        2
102
RTVSPost2010PropOp53
 70
     1
102
RTVSPost2010Prop54
  1
strokes_ogs.tif
102
RTVSPost2010PropOp54
 70
     1
102
RTVSPost2010Prop55
280
     0
102
RTVSPost2010PropOp55
 70
     1
102
RTVSPost2010Prop56
140
1.0
102
RTVSPost2010PropOp56
 70
     1
102
RTVSPost2010Prop57
140
1.0
102
RTVSPost2010PropOp57
 70
     1
102
RTVSPropertyOp0
 70
     1
102
RTVSPropertyOp1
 70
     1
102
RTVSPropertyOp2
 70
     1
102
RTVSPropertyOp3
 70
     1
102
RTVSPropertyOp4
 70
     1
102
RTVSPropertyOp5
 70
     1
102
RTVSPropertyOp6
 70
     1
102
RTVSPropertyOp7
 70
     1
102
RTVSPropertyOp8
 70
     1
102
RTVSPropertyOp9
 70
     1
102
RTVSPropertyOp10
 70
     1
102
RTVSPropertyOp11
 70
     1
102
RTVSPropertyOp12
 70
     1
102
RTVSPropertyOp13
 70
     1
102
RTVSPropertyOp14
 70
     1
102
RTVSPropertyOp15
 70
     1
102
RTVSPropertyOp16
 70
     1
102
RTVSPropertyOp17
 70
     1
102
RTVSPropertyOp18
 70
     1
102
RTVSPropertyOp19
 70
     1
102
RTVSPropertyOp20
 70
     1
102
RTVSPropertyOp21
 70
     1
102
RTVSPropertyOp22
 70
     1
102
RTVSPropertyOp23
 70
     1
102
RTVSPropertyOp24
 70
     1
102
RTVSPropertyOp25
 70
     1
102
RTVSPropertyOp26
 70
     1
102
RTVSPropertyOp27
 70
     1
102
RTVSPropertyOp28
 70
     1
102
RTVSPropertyOp29
 70
     1
102
RTVSPropertyOp30
 70
     1
102
RTVSPropertyOp31
 70
     1
102
RTVSPropertyOp32
 70
     1
102
RTVSPropertyOp33
 70
     1
102
RTVSPropertyOp34
 70
     1
102
RTVSPropertyOp35
 70
     1
102
RTVSPropertyOp36
 70
     1
102
RTVSPropertyOp37
 70
     1
102
RTVSPropertyOp38
 70
     1
102
RTVSPropertyOp39
 70
     1
102
RTVSPropertyOp40
 70
     1
102
RTVSPropertyOp41
 70
     1
102
RTVSPropertyOp42
 70
     1
102
RTVSPropertyOp43
 70
     1
102
RTVSPropertyOp44
 70
     1
102
RTVSPropertyOp45
 70
     1
102
RTVSPropertyOp46
 70
     1
102
RTVSPropertyOp47
 70
     1
102
RTVSPropertyOp48
 70
     1
102
RTVSPropertyOp49
 70
     1
102
RTVSPropertyOp50
 70
     1
102
RTVSPropertyOp51
 70
     0
102
RTVSPropertyOp52
 70
     0
102
RTVSPropertyOp53
 70
     1
102
RTVSPropertyOp54
 70
     1
102
RTVSPropertyOp55
 70
     1
102
RTVSPropertyOp56
 70
     1
102
RTVSPropertyOp57
 70
     1
102
RTVSPropertyOp58
 70
     1
102
RTVSPropertyOp59
 70
     1
102
RTVSPropertyOp60
 70
     1
102
RTVSPropertyOp61
 70
     1
102
RTVSPropertyOp62
 70
     1
  0
XRECORD
  5
20E
102
{ACAD_REACTORS
330
20D
102
}
330
20D
100
AcDbXrecord
280
     1
102
RTVSPost2010Prop28
280
     0
102
RTVSPost2010PropOp28
 70
     1
102
RTVSPost2010Prop29
280
     1
102
RTVSPost2010PropOp29
 70
     1
102
RTVSPost2010Prop30
280
     1
102
RTVSPost2010PropOp30
 70
     1
102
RTVSPost2010Prop31
280
     0
102
RTVSPost2010PropOp31
 70
     1
102
RTVSPost2010Prop32
280
     0
102
RTVSPost2010PropOp32
 70
     1
102
RTVSPost2010Prop33
280
     0
102
RTVSPost2010PropOp33
 70
     1
102
RTVSPost2010Prop34
280
     0
102
RTVSPost2010PropOp34
 70
     1
102
RTVSPost2010Prop35
280
     0
102
RTVSPost2010PropOp35
 70
     1
102
RTVSPost2010Prop36
280
     0
102
RTVSPost2010PropOp36
 70
     1
102
RTVSPost2010Prop37
 90
       50
102
RTVSPost2010PropOp37
 70
     1
102
RTVSPost2010Prop38
140
0.0
102
RTVSPost2010PropOp38
 70
     1
102
RTVSPost2010Prop39
140
1.0
102
RTVSPost2010PropOp39
 70
     1
102
RTVSPost2010Prop40
 90
        0
102
RTVSPost2010PropOp40
 70
     1
102
RTVSPost2010Prop41ColorIndex
 90
       18
102
RTVSPost2010Prop41ColorRGB
 90
        0
102
RTVSPost2010PropOp41
 70
     1
102
RTVSPost2010Prop42
 90
       50
102
RTVSPost2010PropOp42
 70
     1
102
RTVSPost2010Prop43
 90
        3
102
RTVSPost2010PropOp43
 70
     1
102
RTVSPost2010Prop44ColorIndex
 90
        5
102
RTVSPost2010Prop44ColorRGB
 90
      255
102
RTVSPost2010PropOp44
 70
     1
102
RTVSPost2010Prop45
280
     0
102
RTVSPost2010PropOp45
 70
     1
102
RTVSPost2010Prop46
 90
       50
102
RTVSPost2010PropOp46
 70
     1
102
RTVSPost2010Prop47
 90
       50
102
RTVSPost2010PropOp47
 70
     1
102
RTVSPost2010Prop48
 90
       50
102
RTVSPost2010PropOp48
 70
     1
102
RTVSPost2010Prop49
280
     0
102
RTVSPost2010PropOp49
 70
     1
102
RTVSPost2010Prop50
 90
       50
102
RTVSPost2010PropOp50
 70
     1
102
RTVSPost2010Prop51ColorIndex
 90
      256
102
RTVSPost2010Prop51ColorRGB
 90
-16777216
102
RTVSPost2010PropOp51
 70
     0
102
RTVSPost2010Prop52
140
1.0
102
RTVSPost2010PropOp52
 70
     0
102
RTVSPost2010Prop53
 90
        2
102
RTVSPost2010PropOp53
 70
     1
102
RTVSPost2010Prop54
  1
strokes_ogs.tif
102
RTVSPost2010PropOp54
 70
     1
102
RTVSPost2010Prop55
280
     0
102
RTVSPost2010PropOp55
 70
     1
102
RTVSPost2010Prop56
140
1.0
102
RTVSPost2010PropOp56
 70
     1
102
RTVSPost2010Prop57
140
1.0
102
RTVSPost2010PropOp57
 70
     1
102
RTVSPropertyOp0
 70
     1
102
RTVSPropertyOp1
 70
     1
102
RTVSPropertyOp2
 70
     1
102
RTVSPropertyOp3
 70
     1
102
RTVSPropertyOp4
 70
     1
102
RTVSPropertyOp5
 70
     1
102
RTVSPropertyOp6
 70
     1
102
RTVSPropertyOp7
 70
     1
102
RTVSPropertyOp8
 70
     1
102
RTVSPropertyOp9
 70
     1
102
RTVSPropertyOp10
 70
     1
102
RTVSPropertyOp11
 70
     1
102
RTVSPropertyOp12
 70
     1
102
RTVSPropertyOp13
 70
     1
102
RTVSPropertyOp14
 70
     1
102
RTVSPropertyOp15
 70
     1
102
RTVSPropertyOp16
 70
     1
102
RTVSPropertyOp17
 70
     1
102
RTVSPropertyOp18
 70
     1
102
RTVSPropertyOp19
 70
     1
102
RTVSPropertyOp20
 70
     1
102
RTVSPropertyOp21
 70
     1
102
RTVSPropertyOp22
 70
     1
102
RTVSPropertyOp23
 70
     1
102
RTVSPropertyOp24
 70
     1
102
RTVSPropertyOp25
 70
     1
102
RTVSPropertyOp26
 70
     1
102
RTVSPropertyOp27
 70
     1
102
RTVSPropertyOp28
 70
     1
102
RTVSPropertyOp29
 70
     1
102
RTVSPropertyOp30
 70
     1
102
RTVSPropertyOp31
 70
     1
102
RTVSPropertyOp32
 70
     1
102
RTVSPropertyOp33
 70
     1
102
RTVSPropertyOp34
 70
     1
102
RTVSPropertyOp35
 70
     1
102
RTVSPropertyOp36
 70
     1
102
RTVSPropertyOp37
 70
     1
102
RTVSPropertyOp38
 70
     1
102
RTVSPropertyOp39
 70
     1
102
RTVSPropertyOp40
 70
     1
102
RTVSPropertyOp41
 70
     1
102
RTVSPropertyOp42
 70
     1
102
RTVSPropertyOp43
 70
     1
102
RTVSPropertyOp44
 70
     1
102
RTVSPropertyOp45
 70
     1
102
RTVSPropertyOp46
 70
     1
102
RTVSPropertyOp47
 70
     1
102
RTVSPropertyOp48
 70
     1
102
RTVSPropertyOp49
 70
     1
102
RTVSPropertyOp50
 70
     1
102
RTVSPropertyOp51
 70
     0
102
RTVSPropertyOp52
 70
     0
102
RTVSPropertyOp53
 70
     1
102
RTVSPropertyOp54
 70
     1
102
RTVSPropertyOp55
 70
     1
102
RTVSPropertyOp56
 70
     1
102
RTVSPropertyOp57
 70
     1
102
RTVSPropertyOp58
 70
     1
102
RTVSPropertyOp59
 70
     1
102
RTVSPropertyOp60
 70
     1
102
RTVSPropertyOp61
 70
     1
102
RTVSPropertyOp62
 70
     1
  0
XRECORD
  5
20C
102
{ACAD_REACTORS
330
20B
102
}
330
20B
100
AcDbXrecord
280
     1
102
RTVSPost2010Prop28
280
     0
102
RTVSPost2010PropOp28
 70
     1
102
RTVSPost2010Prop29
280
     1
102
RTVSPost2010PropOp29
 70
     1
102
RTVSPost2010Prop30
280
     1
102
RTVSPost2010PropOp30
 70
     1
102
RTVSPost2010Prop31
280
     0
102
RTVSPost2010PropOp31
 70
     1
102
RTVSPost2010Prop32
280
     0
102
RTVSPost2010PropOp32
 70
     1
102
RTVSPost2010Prop33
280
     0
102
RTVSPost2010PropOp33
 70
     1
102
RTVSPost2010Prop34
280
     0
102
RTVSPost2010PropOp34
 70
     1
102
RTVSPost2010Prop35
280
     0
102
RTVSPost2010PropOp35
 70
     1
102
RTVSPost2010Prop36
280
     0
102
RTVSPost2010PropOp36
 70
     1
102
RTVSPost2010Prop37
 90
       50
102
RTVSPost2010PropOp37
 70
     1
102
RTVSPost2010Prop38
140
0.0
102
RTVSPost2010PropOp38
 70
     1
102
RTVSPost2010Prop39
140
1.0
102
RTVSPost2010PropOp39
 70
     1
102
RTVSPost2010Prop40
 90
        0
102
RTVSPost2010PropOp40
 70
     1
102
RTVSPost2010Prop41ColorIndex
 90
       18
102
RTVSPost2010Prop41ColorRGB
 90
        0
102
RTVSPost2010PropOp41
 70
     1
102
RTVSPost2010Prop42
 90
       50
102
RTVSPost2010PropOp42
 70
     1
102
RTVSPost2010Prop43
 90
        3
102
RTVSPost2010PropOp43
 70
     1
102
RTVSPost2010Prop44ColorIndex
 90
        5
102
RTVSPost2010Prop44ColorRGB
 90
      255
102
RTVSPost2010PropOp44
 70
     1
102
RTVSPost2010Prop45
280
     0
102
RTVSPost2010PropOp45
 70
     1
102
RTVSPost2010Prop46
 90
       50
102
RTVSPost2010PropOp46
 70
     1
102
RTVSPost2010Prop47
 90
       50
102
RTVSPost2010PropOp47
 70
     1
102
RTVSPost2010Prop48
 90
       50
102
RTVSPost2010PropOp48
 70
     1
102
RTVSPost2010Prop49
280
     0
102
RTVSPost2010PropOp49
 70
     1
102
RTVSPost2010Prop50
 90
       50
102
RTVSPost2010PropOp50
 70
     1
102
RTVSPost2010Prop51ColorIndex
 90
      256
102
RTVSPost2010Prop51ColorRGB
 90
-16777216
102
RTVSPost2010PropOp51
 70
     0
102
RTVSPost2010Prop52
140
1.0
102
RTVSPost2010PropOp52
 70
     0
102
RTVSPost2010Prop53
 90
        2
102
RTVSPost2010PropOp53
 70
     1
102
RTVSPost2010Prop54
  1
strokes_ogs.tif
102
RTVSPost2010PropOp54
 70
     1
102
RTVSPost2010Prop55
280
     0
102
RTVSPost2010PropOp55
 70
     1
102
RTVSPost2010Prop56
140
1.0
102
RTVSPost2010PropOp56
 70
     1
102
RTVSPost2010Prop57
140
1.0
102
RTVSPost2010PropOp57
 70
     1
102
RTVSPropertyOp0
 70
     1
102
RTVSPropertyOp1
 70
     1
102
RTVSPropertyOp2
 70
     1
102
RTVSPropertyOp3
 70
     1
102
RTVSPropertyOp4
 70
     1
102
RTVSPropertyOp5
 70
     1
102
RTVSPropertyOp6
 70
     1
102
RTVSPropertyOp7
 70
     1
102
RTVSPropertyOp8
 70
     1
102
RTVSPropertyOp9
 70
     1
102
RTVSPropertyOp10
 70
     1
102
RTVSPropertyOp11
 70
     1
102
RTVSPropertyOp12
 70
     1
102
RTVSPropertyOp13
 70
     1
102
RTVSPropertyOp14
 70
     1
102
RTVSPropertyOp15
 70
     1
102
RTVSPropertyOp16
 70
     1
102
RTVSPropertyOp17
 70
     1
102
RTVSPropertyOp18
 70
     1
102
RTVSPropertyOp19
 70
     1
102
RTVSPropertyOp20
 70
     1
102
RTVSPropertyOp21
 70
     1
102
RTVSPropertyOp22
 70
     1
102
RTVSPropertyOp23
 70
     1
102
RTVSPropertyOp24
 70
     1
102
RTVSPropertyOp25
 70
     1
102
RTVSPropertyOp26
 70
     1
102
RTVSPropertyOp27
 70
     1
102
RTVSPropertyOp28
 70
     1
102
RTVSPropertyOp29
 70
     1
102
RTVSPropertyOp30
 70
     1
102
RTVSPropertyOp31
 70
     1
102
RTVSPropertyOp32
 70
     1
102
RTVSPropertyOp33
 70
     1
102
RTVSPropertyOp34
 70
     1
102
RTVSPropertyOp35
 70
     1
102
RTVSPropertyOp36
 70
     1
102
RTVSPropertyOp37
 70
     1
102
RTVSPropertyOp38
 70
     1
102
RTVSPropertyOp39
 70
     1
102
RTVSPropertyOp40
 70
     1
102
RTVSPropertyOp41
 70
     1
102
RTVSPropertyOp42
 70
     1
102
RTVSPropertyOp43
 70
     1
102
RTVSPropertyOp44
 70
     1
102
RTVSPropertyOp45
 70
     1
102
RTVSPropertyOp46
 70
     1
102
RTVSPropertyOp47
 70
     1
102
RTVSPropertyOp48
 70
     1
102
RTVSPropertyOp49
 70
     1
102
RTVSPropertyOp50
 70
     1
102
RTVSPropertyOp51
 70
     0
102
RTVSPropertyOp52
 70
     0
102
RTVSPropertyOp53
 70
     1
102
RTVSPropertyOp54
 70
     1
102
RTVSPropertyOp55
 70
     1
102
RTVSPropertyOp56
 70
     1
102
RTVSPropertyOp57
 70
     1
102
RTVSPropertyOp58
 70
     1
102
RTVSPropertyOp59
 70
     1
102
RTVSPropertyOp60
 70
     1
102
RTVSPropertyOp61
 70
     1
102
RTVSPropertyOp62
 70
     1
  0
XRECORD
  5
206
102
{ACAD_REACTORS
330
205
102
}
330
205
100
AcDbXrecord
280
     1
102
RTVSPost2010Prop28
280
     0
102
RTVSPost2010PropOp28
 70
     1
102
RTVSPost2010Prop29
280
     1
102
RTVSPost2010PropOp29
 70
     1
102
RTVSPost2010Prop30
280
     1
102
RTVSPost2010PropOp30
 70
     1
102
RTVSPost2010Prop31
280
     0
102
RTVSPost2010PropOp31
 70
     1
102
RTVSPost2010Prop32
280
     0
102
RTVSPost2010PropOp32
 70
     1
102
RTVSPost2010Prop33
280
     0
102
RTVSPost2010PropOp33
 70
     1
102
RTVSPost2010Prop34
280
     0
102
RTVSPost2010PropOp34
 70
     1
102
RTVSPost2010Prop35
280
     0
102
RTVSPost2010PropOp35
 70
     1
102
RTVSPost2010Prop36
280
     0
102
RTVSPost2010PropOp36
 70
     1
102
RTVSPost2010Prop37
 90
       50
102
RTVSPost2010PropOp37
 70
     1
102
RTVSPost2010Prop38
140
0.0
102
RTVSPost2010PropOp38
 70
     1
102
RTVSPost2010Prop39
140
1.0
102
RTVSPost2010PropOp39
 70
     1
102
RTVSPost2010Prop40
 90
        0
102
RTVSPost2010PropOp40
 70
     1
102
RTVSPost2010Prop41ColorIndex
 90
       18
102
RTVSPost2010Prop41ColorRGB
 90
        0
102
RTVSPost2010PropOp41
 70
     1
102
RTVSPost2010Prop42
 90
       50
102
RTVSPost2010PropOp42
 70
     1
102
RTVSPost2010Prop43
 90
        3
102
RTVSPost2010PropOp43
 70
     1
102
RTVSPost2010Prop44ColorIndex
 90
        5
102
RTVSPost2010Prop44ColorRGB
 90
      255
102
RTVSPost2010PropOp44
 70
     1
102
RTVSPost2010Prop45
280
     0
102
RTVSPost2010PropOp45
 70
     1
102
RTVSPost2010Prop46
 90
       50
102
RTVSPost2010PropOp46
 70
     1
102
RTVSPost2010Prop47
 90
       50
102
RTVSPost2010PropOp47
 70
     1
102
RTVSPost2010Prop48
 90
       50
102
RTVSPost2010PropOp48
 70
     1
102
RTVSPost2010Prop49
280
     0
102
RTVSPost2010PropOp49
 70
     1
102
RTVSPost2010Prop50
 90
       50
102
RTVSPost2010PropOp50
 70
     1
102
RTVSPost2010Prop51ColorIndex
 90
      256
102
RTVSPost2010Prop51ColorRGB
 90
-16777216
102
RTVSPost2010PropOp51
 70
     0
102
RTVSPost2010Prop52
140
1.0
102
RTVSPost2010PropOp52
 70
     0
102
RTVSPost2010Prop53
 90
        2
102
RTVSPost2010PropOp53
 70
     1
102
RTVSPost2010Prop54
  1
strokes_ogs.tif
102
RTVSPost2010PropOp54
 70
     1
102
RTVSPost2010Prop55
280
     0
102
RTVSPost2010PropOp55
 70
     1
102
RTVSPost2010Prop56
140
1.0
102
RTVSPost2010PropOp56
 70
     1
102
RTVSPost2010Prop57
140
1.0
102
RTVSPost2010PropOp57
 70
     1
102
RTVSPropertyOp0
 70
     1
102
RTVSPropertyOp1
 70
     1
102
RTVSPropertyOp2
 70
     1
102
RTVSPropertyOp3
 70
     1
102
RTVSPropertyOp4
 70
     1
102
RTVSPropertyOp5
 70
     1
102
RTVSPropertyOp6
 70
     1
102
RTVSPropertyOp7
 70
     1
102
RTVSPropertyOp8
 70
     1
102
RTVSPropertyOp9
 70
     1
102
RTVSPropertyOp10
 70
     1
102
RTVSPropertyOp11
 70
     1
102
RTVSPropertyOp12
 70
     1
102
RTVSPropertyOp13
 70
     1
102
RTVSPropertyOp14
 70
     1
102
RTVSPropertyOp15
 70
     1
102
RTVSPropertyOp16
 70
     1
102
RTVSPropertyOp17
 70
     1
102
RTVSPropertyOp18
 70
     1
102
RTVSPropertyOp19
 70
     1
102
RTVSPropertyOp20
 70
     1
102
RTVSPropertyOp21
 70
     1
102
RTVSPropertyOp22
 70
     1
102
RTVSPropertyOp23
 70
     1
102
RTVSPropertyOp24
 70
     1
102
RTVSPropertyOp25
 70
     1
102
RTVSPropertyOp26
 70
     1
102
RTVSPropertyOp27
 70
     1
102
RTVSPropertyOp28
 70
     1
102
RTVSPropertyOp29
 70
     1
102
RTVSPropertyOp30
 70
     1
102
RTVSPropertyOp31
 70
     1
102
RTVSPropertyOp32
 70
     1
102
RTVSPropertyOp33
 70
     1
102
RTVSPropertyOp34
 70
     1
102
RTVSPropertyOp35
 70
     1
102
RTVSPropertyOp36
 70
     1
102
RTVSPropertyOp37
 70
     1
102
RTVSPropertyOp38
 70
     1
102
RTVSPropertyOp39
 70
     1
102
RTVSPropertyOp40
 70
     1
102
RTVSPropertyOp41
 70
     1
102
RTVSPropertyOp42
 70
     1
102
RTVSPropertyOp43
 70
     1
102
RTVSPropertyOp44
 70
     1
102
RTVSPropertyOp45
 70
     1
102
RTVSPropertyOp46
 70
     1
102
RTVSPropertyOp47
 70
     1
102
RTVSPropertyOp48
 70
     1
102
RTVSPropertyOp49
 70
     1
102
RTVSPropertyOp50
 70
     1
102
RTVSPropertyOp51
 70
     0
102
RTVSPropertyOp52
 70
     0
102
RTVSPropertyOp53
 70
     1
102
RTVSPropertyOp54
 70
     1
102
RTVSPropertyOp55
 70
     1
102
RTVSPropertyOp56
 70
     1
102
RTVSPropertyOp57
 70
     1
102
RTVSPropertyOp58
 70
     1
102
RTVSPropertyOp59
 70
     1
102
RTVSPropertyOp60
 70
     1
102
RTVSPropertyOp61
 70
     1
102
RTVSPropertyOp62
 70
     1
  0
XRECORD
  5
208
102
{ACAD_REACTORS
330
207
102
}
330
207
100
AcDbXrecord
280
     1
102
RTVSPost2010Prop28
280
     0
102
RTVSPost2010PropOp28
 70
     1
102
RTVSPost2010Prop29
280
     1
102
RTVSPost2010PropOp29
 70
     1
102
RTVSPost2010Prop30
280
     1
102
RTVSPost2010PropOp30
 70
     1
102
RTVSPost2010Prop31
280
     0
102
RTVSPost2010PropOp31
 70
     1
102
RTVSPost2010Prop32
280
     0
102
RTVSPost2010PropOp32
 70
     1
102
RTVSPost2010Prop33
280
     0
102
RTVSPost2010PropOp33
 70
     1
102
RTVSPost2010Prop34
280
     0
102
RTVSPost2010PropOp34
 70
     1
102
RTVSPost2010Prop35
280
     0
102
RTVSPost2010PropOp35
 70
     1
102
RTVSPost2010Prop36
280
     0
102
RTVSPost2010PropOp36
 70
     1
102
RTVSPost2010Prop37
 90
       50
102
RTVSPost2010PropOp37
 70
     1
102
RTVSPost2010Prop38
140
0.0
102
RTVSPost2010PropOp38
 70
     1
102
RTVSPost2010Prop39
140
1.0
102
RTVSPost2010PropOp39
 70
     1
102
RTVSPost2010Prop40
 90
        0
102
RTVSPost2010PropOp40
 70
     1
102
RTVSPost2010Prop41ColorIndex
 90
       18
102
RTVSPost2010Prop41ColorRGB
 90
        0
102
RTVSPost2010PropOp41
 70
     1
102
RTVSPost2010Prop42
 90
       50
102
RTVSPost2010PropOp42
 70
     1
102
RTVSPost2010Prop43
 90
        3
102
RTVSPost2010PropOp43
 70
     1
102
RTVSPost2010Prop44ColorIndex
 90
        5
102
RTVSPost2010Prop44ColorRGB
 90
      255
102
RTVSPost2010PropOp44
 70
     1
102
RTVSPost2010Prop45
280
     0
102
RTVSPost2010PropOp45
 70
     1
102
RTVSPost2010Prop46
 90
       50
102
RTVSPost2010PropOp46
 70
     1
102
RTVSPost2010Prop47
 90
       50
102
RTVSPost2010PropOp47
 70
     1
102
RTVSPost2010Prop48
 90
       50
102
RTVSPost2010PropOp48
 70
     1
102
RTVSPost2010Prop49
280
     0
102
RTVSPost2010PropOp49
 70
     1
102
RTVSPost2010Prop50
 90
       50
102
RTVSPost2010PropOp50
 70
     1
102
RTVSPost2010Prop51ColorIndex
 90
      256
102
RTVSPost2010Prop51ColorRGB
 90
-16777216
102
RTVSPost2010PropOp51
 70
     0
102
RTVSPost2010Prop52
140
1.0
102
RTVSPost2010PropOp52
 70
     0
102
RTVSPost2010Prop53
 90
        2
102
RTVSPost2010PropOp53
 70
     1
102
RTVSPost2010Prop54
  1
strokes_ogs.tif
102
RTVSPost2010PropOp54
 70
     1
102
RTVSPost2010Prop55
280
     0
102
RTVSPost2010PropOp55
 70
     1
102
RTVSPost2010Prop56
140
1.0
102
RTVSPost2010PropOp56
 70
     1
102
RTVSPost2010Prop57
140
1.0
102
RTVSPost2010PropOp57
 70
     1
102
RTVSPropertyOp0
 70
     1
102
RTVSPropertyOp1
 70
     1
102
RTVSPropertyOp2
 70
     1
102
RTVSPropertyOp3
 70
     1
102
RTVSPropertyOp4
 70
     1
102
RTVSPropertyOp5
 70
     1
102
RTVSPropertyOp6
 70
     1
102
RTVSPropertyOp7
 70
     1
102
RTVSPropertyOp8
 70
     1
102
RTVSPropertyOp9
 70
     1
102
RTVSPropertyOp10
 70
     1
102
RTVSPropertyOp11
 70
     1
102
RTVSPropertyOp12
 70
     1
102
RTVSPropertyOp13
 70
     1
102
RTVSPropertyOp14
 70
     1
102
RTVSPropertyOp15
 70
     1
102
RTVSPropertyOp16
 70
     1
102
RTVSPropertyOp17
 70
     1
102
RTVSPropertyOp18
 70
     1
102
RTVSPropertyOp19
 70
     1
102
RTVSPropertyOp20
 70
     1
102
RTVSPropertyOp21
 70
     1
102
RTVSPropertyOp22
 70
     1
102
RTVSPropertyOp23
 70
     1
102
RTVSPropertyOp24
 70
     1
102
RTVSPropertyOp25
 70
     1
102
RTVSPropertyOp26
 70
     1
102
RTVSPropertyOp27
 70
     1
102
RTVSPropertyOp28
 70
     1
102
RTVSPropertyOp29
 70
     1
102
RTVSPropertyOp30
 70
     1
102
RTVSPropertyOp31
 70
     1
102
RTVSPropertyOp32
 70
     1
102
RTVSPropertyOp33
 70
     1
102
RTVSPropertyOp34
 70
     1
102
RTVSPropertyOp35
 70
     1
102
RTVSPropertyOp36
 70
     1
102
RTVSPropertyOp37
 70
     1
102
RTVSPropertyOp38
 70
     1
102
RTVSPropertyOp39
 70
     1
102
RTVSPropertyOp40
 70
     1
102
RTVSPropertyOp41
 70
     1
102
RTVSPropertyOp42
 70
     1
102
RTVSPropertyOp43
 70
     1
102
RTVSPropertyOp44
 70
     1
102
RTVSPropertyOp45
 70
     1
102
RTVSPropertyOp46
 70
     1
102
RTVSPropertyOp47
 70
     1
102
RTVSPropertyOp48
 70
     1
102
RTVSPropertyOp49
 70
     1
102
RTVSPropertyOp50
 70
     1
102
RTVSPropertyOp51
 70
     0
102
RTVSPropertyOp52
 70
     0
102
RTVSPropertyOp53
 70
     1
102
RTVSPropertyOp54
 70
     1
102
RTVSPropertyOp55
 70
     1
102
RTVSPropertyOp56
 70
     1
102
RTVSPropertyOp57
 70
     1
102
RTVSPropertyOp58
 70
     1
102
RTVSPropertyOp59
 70
     1
102
RTVSPropertyOp60
 70
     1
102
RTVSPropertyOp61
 70
     1
102
RTVSPropertyOp62
 70
     1
  0
XRECORD
  5
1FE
102
{ACAD_REACTORS
330
1FD
102
}
330
1FD
100
AcDbXrecord
280
     1
102
RTVSPost2010Prop28
280
     0
102
RTVSPost2010PropOp28
 70
     1
102
RTVSPost2010Prop29
280
     1
102
RTVSPost2010PropOp29
 70
     1
102
RTVSPost2010Prop30
280
     1
102
RTVSPost2010PropOp30
 70
     1
102
RTVSPost2010Prop31
280
     0
102
RTVSPost2010PropOp31
 70
     1
102
RTVSPost2010Prop32
280
     0
102
RTVSPost2010PropOp32
 70
     1
102
RTVSPost2010Prop33
280
     0
102
RTVSPost2010PropOp33
 70
     1
102
RTVSPost2010Prop34
280
     0
102
RTVSPost2010PropOp34
 70
     1
102
RTVSPost2010Prop35
280
     0
102
RTVSPost2010PropOp35
 70
     1
102
RTVSPost2010Prop36
280
     0
102
RTVSPost2010PropOp36
 70
     1
102
RTVSPost2010Prop37
 90
       50
102
RTVSPost2010PropOp37
 70
     1
102
RTVSPost2010Prop38
140
0.0
102
RTVSPost2010PropOp38
 70
     1
102
RTVSPost2010Prop39
140
1.0
102
RTVSPost2010PropOp39
 70
     1
102
RTVSPost2010Prop40
 90
        0
102
RTVSPost2010PropOp40
 70
     1
102
RTVSPost2010Prop41ColorIndex
 90
       18
102
RTVSPost2010Prop41ColorRGB
 90
        0
102
RTVSPost2010PropOp41
 70
     1
102
RTVSPost2010Prop42
 90
       50
102
RTVSPost2010PropOp42
 70
     1
102
RTVSPost2010Prop43
 90
        3
102
RTVSPost2010PropOp43
 70
     1
102
RTVSPost2010Prop44ColorIndex
 90
        5
102
RTVSPost2010Prop44ColorRGB
 90
      255
102
RTVSPost2010PropOp44
 70
     1
102
RTVSPost2010Prop45
280
     0
102
RTVSPost2010PropOp45
 70
     1
102
RTVSPost2010Prop46
 90
       50
102
RTVSPost2010PropOp46
 70
     1
102
RTVSPost2010Prop47
 90
       50
102
RTVSPost2010PropOp47
 70
     1
102
RTVSPost2010Prop48
 90
       50
102
RTVSPost2010PropOp48
 70
     1
102
RTVSPost2010Prop49
280
     0
102
RTVSPost2010PropOp49
 70
     1
102
RTVSPost2010Prop50
 90
       50
102
RTVSPost2010PropOp50
 70
     1
102
RTVSPost2010Prop51ColorIndex
 90
      256
102
RTVSPost2010Prop51ColorRGB
 90
-16777216
102
RTVSPost2010PropOp51
 70
     0
102
RTVSPost2010Prop52
140
1.0
102
RTVSPost2010PropOp52
 70
     0
102
RTVSPost2010Prop53
 90
        2
102
RTVSPost2010PropOp53
 70
     1
102
RTVSPost2010Prop54
  1
strokes_ogs.tif
102
RTVSPost2010PropOp54
 70
     1
102
RTVSPost2010Prop55
280
     0
102
RTVSPost2010PropOp55
 70
     1
102
RTVSPost2010Prop56
140
1.0
102
RTVSPost2010PropOp56
 70
     1
102
RTVSPost2010Prop57
140
1.0
102
RTVSPost2010PropOp57
 70
     1
102
RTVSPropertyOp0
 70
     1
102
RTVSPropertyOp1
 70
     1
102
RTVSPropertyOp2
 70
     1
102
RTVSPropertyOp3
 70
     1
102
RTVSPropertyOp4
 70
     1
102
RTVSPropertyOp5
 70
     1
102
RTVSPropertyOp6
 70
     1
102
RTVSPropertyOp7
 70
     1
102
RTVSPropertyOp8
 70
     1
102
RTVSPropertyOp9
 70
     1
102
RTVSPropertyOp10
 70
     1
102
RTVSPropertyOp11
 70
     1
102
RTVSPropertyOp12
 70
     1
102
RTVSPropertyOp13
 70
     1
102
RTVSPropertyOp14
 70
     1
102
RTVSPropertyOp15
 70
     1
102
RTVSPropertyOp16
 70
     1
102
RTVSPropertyOp17
 70
     1
102
RTVSPropertyOp18
 70
     1
102
RTVSPropertyOp19
 70
     1
102
RTVSPropertyOp20
 70
     1
102
RTVSPropertyOp21
 70
     1
102
RTVSPropertyOp22
 70
     1
102
RTVSPropertyOp23
 70
     1
102
RTVSPropertyOp24
 70
     1
102
RTVSPropertyOp25
 70
     1
102
RTVSPropertyOp26
 70
     1
102
RTVSPropertyOp27
 70
     1
102
RTVSPropertyOp28
 70
     1
102
RTVSPropertyOp29
 70
     1
102
RTVSPropertyOp30
 70
     1
102
RTVSPropertyOp31
 70
     1
102
RTVSPropertyOp32
 70
     1
102
RTVSPropertyOp33
 70
     1
102
RTVSPropertyOp34
 70
     1
102
RTVSPropertyOp35
 70
     1
102
RTVSPropertyOp36
 70
     1
102
RTVSPropertyOp37
 70
     1
102
RTVSPropertyOp38
 70
     1
102
RTVSPropertyOp39
 70
     1
102
RTVSPropertyOp40
 70
     1
102
RTVSPropertyOp41
 70
     1
102
RTVSPropertyOp42
 70
     1
102
RTVSPropertyOp43
 70
     1
102
RTVSPropertyOp44
 70
     1
102
RTVSPropertyOp45
 70
     1
102
RTVSPropertyOp46
 70
     1
102
RTVSPropertyOp47
 70
     1
102
RTVSPropertyOp48
 70
     1
102
RTVSPropertyOp49
 70
     1
102
RTVSPropertyOp50
 70
     1
102
RTVSPropertyOp51
 70
     0
102
RTVSPropertyOp52
 70
     0
102
RTVSPropertyOp53
 70
     1
102
RTVSPropertyOp54
 70
     1
102
RTVSPropertyOp55
 70
     1
102
RTVSPropertyOp56
 70
     1
102
RTVSPropertyOp57
 70
     1
102
RTVSPropertyOp58
 70
     1
102
RTVSPropertyOp59
 70
     1
102
RTVSPropertyOp60
 70
     1
102
RTVSPropertyOp61
 70
     1
102
RTVSPropertyOp62
 70
     1
  0
XRECORD
  5
1C2
102
{ACAD_REACTORS
330
1C1
102
}
330
1C1
100
AcDbXrecord
280
     1
102
RTVSPost2010Prop28
280
     0
102
RTVSPost2010PropOp28
 70
     1
102
RTVSPost2010Prop29
280
     1
102
RTVSPost2010PropOp29
 70
     1
102
RTVSPost2010Prop30
280
     1
102
RTVSPost2010PropOp30
 70
     1
102
RTVSPost2010Prop31
280
     0
102
RTVSPost2010PropOp31
 70
     1
102
RTVSPost2010Prop32
280
     0
102
RTVSPost2010PropOp32
 70
     1
102
RTVSPost2010Prop33
280
     0
102
RTVSPost2010PropOp33
 70
     1
102
RTVSPost2010Prop34
280
     0
102
RTVSPost2010PropOp34
 70
     1
102
RTVSPost2010Prop35
280
     0
102
RTVSPost2010PropOp35
 70
     1
102
RTVSPost2010Prop36
280
     0
102
RTVSPost2010PropOp36
 70
     1
102
RTVSPost2010Prop37
 90
       50
102
RTVSPost2010PropOp37
 70
     1
102
RTVSPost2010Prop38
140
0.0
102
RTVSPost2010PropOp38
 70
     1
102
RTVSPost2010Prop39
140
1.0
102
RTVSPost2010PropOp39
 70
     1
102
RTVSPost2010Prop40
 90
        0
102
RTVSPost2010PropOp40
 70
     1
102
RTVSPost2010Prop41ColorIndex
 90
       18
102
RTVSPost2010Prop41ColorRGB
 90
        0
102
RTVSPost2010PropOp41
 70
     1
102
RTVSPost2010Prop42
 90
       50
102
RTVSPost2010PropOp42
 70
     1
102
RTVSPost2010Prop43
 90
        3
102
RTVSPost2010PropOp43
 70
     1
102
RTVSPost2010Prop44ColorIndex
 90
        5
102
RTVSPost2010Prop44ColorRGB
 90
      255
102
RTVSPost2010PropOp44
 70
     1
102
RTVSPost2010Prop45
280
     0
102
RTVSPost2010PropOp45
 70
     1
102
RTVSPost2010Prop46
 90
       50
102
RTVSPost2010PropOp46
 70
     1
102
RTVSPost2010Prop47
 90
       50
102
RTVSPost2010PropOp47
 70
     1
102
RTVSPost2010Prop48
 90
       50
102
RTVSPost2010PropOp48
 70
     1
102
RTVSPost2010Prop49
280
     0
102
RTVSPost2010PropOp49
 70
     1
102
RTVSPost2010Prop50
 90
       50
102
RTVSPost2010PropOp50
 70
     1
102
RTVSPost2010Prop51ColorIndex
 90
      256
102
RTVSPost2010Prop51ColorRGB
 90
-16777216
102
RTVSPost2010PropOp51
 70
     0
102
RTVSPost2010Prop52
140
1.0
102
RTVSPost2010PropOp52
 70
     0
102
RTVSPost2010Prop53
 90
        2
102
RTVSPost2010PropOp53
 70
     1
102
RTVSPost2010Prop54
  1
strokes_ogs.tif
102
RTVSPost2010PropOp54
 70
     1
102
RTVSPost2010Prop55
280
     0
102
RTVSPost2010PropOp55
 70
     1
102
RTVSPost2010Prop56
140
1.0
102
RTVSPost2010PropOp56
 70
     1
102
RTVSPost2010Prop57
140
1.0
102
RTVSPost2010PropOp57
 70
     1
102
RTVSPropertyOp0
 70
     1
102
RTVSPropertyOp1
 70
     1
102
RTVSPropertyOp2
 70
     1
102
RTVSPropertyOp3
 70
     1
102
RTVSPropertyOp4
 70
     1
102
RTVSPropertyOp5
 70
     1
102
RTVSPropertyOp6
 70
     1
102
RTVSPropertyOp7
 70
     1
102
RTVSPropertyOp8
 70
     1
102
RTVSPropertyOp9
 70
     1
102
RTVSPropertyOp10
 70
     1
102
RTVSPropertyOp11
 70
     1
102
RTVSPropertyOp12
 70
     1
102
RTVSPropertyOp13
 70
     1
102
RTVSPropertyOp14
 70
     1
102
RTVSPropertyOp15
 70
     1
102
RTVSPropertyOp16
 70
     1
102
RTVSPropertyOp17
 70
     1
102
RTVSPropertyOp18
 70
     1
102
RTVSPropertyOp19
 70
     1
102
RTVSPropertyOp20
 70
     1
102
RTVSPropertyOp21
 70
     1
102
RTVSPropertyOp22
 70
     1
102
RTVSPropertyOp23
 70
     1
102
RTVSPropertyOp24
 70
     1
102
RTVSPropertyOp25
 70
     1
102
RTVSPropertyOp26
 70
     1
102
RTVSPropertyOp27
 70
     1
102
RTVSPropertyOp28
 70
     1
102
RTVSPropertyOp29
 70
     1
102
RTVSPropertyOp30
 70
     1
102
RTVSPropertyOp31
 70
     1
102
RTVSPropertyOp32
 70
     1
102
RTVSPropertyOp33
 70
     1
102
RTVSPropertyOp34
 70
     1
102
RTVSPropertyOp35
 70
     1
102
RTVSPropertyOp36
 70
     1
102
RTVSPropertyOp37
 70
     1
102
RTVSPropertyOp38
 70
     1
102
RTVSPropertyOp39
 70
     1
102
RTVSPropertyOp40
 70
     1
102
RTVSPropertyOp41
 70
     1
102
RTVSPropertyOp42
 70
     1
102
RTVSPropertyOp43
 70
     1
102
RTVSPropertyOp44
 70
     1
102
RTVSPropertyOp45
 70
     1
102
RTVSPropertyOp46
 70
     1
102
RTVSPropertyOp47
 70
     1
102
RTVSPropertyOp48
 70
     1
102
RTVSPropertyOp49
 70
     1
102
RTVSPropertyOp50
 70
     1
102
RTVSPropertyOp51
 70
     0
102
RTVSPropertyOp52
 70
     0
102
RTVSPropertyOp53
 70
     1
102
RTVSPropertyOp54
 70
     1
102
RTVSPropertyOp55
 70
     1
102
RTVSPropertyOp56
 70
     1
102
RTVSPropertyOp57
 70
     1
102
RTVSPropertyOp58
 70
     1
102
RTVSPropertyOp59
 70
     1
102
RTVSPropertyOp60
 70
     1
102
RTVSPropertyOp61
 70
     1
102
RTVSPropertyOp62
 70
     1
  0
XRECORD
  5
20A
102
{ACAD_REACTORS
330
209
102
}
330
209
100
AcDbXrecord
280
     1
102
RTVSPost2010Prop28
280
     0
102
RTVSPost2010PropOp28
 70
     1
102
RTVSPost2010Prop29
280
     1
102
RTVSPost2010PropOp29
 70
     1
102
RTVSPost2010Prop30
280
     1
102
RTVSPost2010PropOp30
 70
     1
102
RTVSPost2010Prop31
280
     0
102
RTVSPost2010PropOp31
 70
     1
102
RTVSPost2010Prop32
280
     0
102
RTVSPost2010PropOp32
 70
     1
102
RTVSPost2010Prop33
280
     0
102
RTVSPost2010PropOp33
 70
     1
102
RTVSPost2010Prop34
280
     0
102
RTVSPost2010PropOp34
 70
     1
102
RTVSPost2010Prop35
280
     0
102
RTVSPost2010PropOp35
 70
     1
102
RTVSPost2010Prop36
280
     0
102
RTVSPost2010PropOp36
 70
     1
102
RTVSPost2010Prop37
 90
       50
102
RTVSPost2010PropOp37
 70
     1
102
RTVSPost2010Prop38
140
0.0
102
RTVSPost2010PropOp38
 70
     1
102
RTVSPost2010Prop39
140
1.0
102
RTVSPost2010PropOp39
 70
     1
102
RTVSPost2010Prop40
 90
        0
102
RTVSPost2010PropOp40
 70
     1
102
RTVSPost2010Prop41ColorIndex
 90
       18
102
RTVSPost2010Prop41ColorRGB
 90
        0
102
RTVSPost2010PropOp41
 70
     1
102
RTVSPost2010Prop42
 90
       50
102
RTVSPost2010PropOp42
 70
     1
102
RTVSPost2010Prop43
 90
        3
102
RTVSPost2010PropOp43
 70
     1
102
RTVSPost2010Prop44ColorIndex
 90
        5
102
RTVSPost2010Prop44ColorRGB
 90
      255
102
RTVSPost2010PropOp44
 70
     1
102
RTVSPost2010Prop45
280
     0
102
RTVSPost2010PropOp45
 70
     1
102
RTVSPost2010Prop46
 90
       50
102
RTVSPost2010PropOp46
 70
     1
102
RTVSPost2010Prop47
 90
       50
102
RTVSPost2010PropOp47
 70
     1
102
RTVSPost2010Prop48
 90
       50
102
RTVSPost2010PropOp48
 70
     1
102
RTVSPost2010Prop49
280
     0
102
RTVSPost2010PropOp49
 70
     1
102
RTVSPost2010Prop50
 90
       50
102
RTVSPost2010PropOp50
 70
     1
102
RTVSPost2010Prop51ColorIndex
 90
      256
102
RTVSPost2010Prop51ColorRGB
 90
-16777216
102
RTVSPost2010PropOp51
 70
     0
102
RTVSPost2010Prop52
140
1.0
102
RTVSPost2010PropOp52
 70
     0
102
RTVSPost2010Prop53
 90
        2
102
RTVSPost2010PropOp53
 70
     1
102
RTVSPost2010Prop54
  1
strokes_ogs.tif
102
RTVSPost2010PropOp54
 70
     1
102
RTVSPost2010Prop55
280
     0
102
RTVSPost2010PropOp55
 70
     1
102
RTVSPost2010Prop56
140
1.0
102
RTVSPost2010PropOp56
 70
     1
102
RTVSPost2010Prop57
140
1.0
102
RTVSPost2010PropOp57
 70
     1
102
RTVSPropertyOp0
 70
     1
102
RTVSPropertyOp1
 70
     1
102
RTVSPropertyOp2
 70
     1
102
RTVSPropertyOp3
 70
     1
102
RTVSPropertyOp4
 70
     1
102
RTVSPropertyOp5
 70
     1
102
RTVSPropertyOp6
 70
     1
102
RTVSPropertyOp7
 70
     1
102
RTVSPropertyOp8
 70
     1
102
RTVSPropertyOp9
 70
     1
102
RTVSPropertyOp10
 70
     1
102
RTVSPropertyOp11
 70
     1
102
RTVSPropertyOp12
 70
     1
102
RTVSPropertyOp13
 70
     1
102
RTVSPropertyOp14
 70
     1
102
RTVSPropertyOp15
 70
     1
102
RTVSPropertyOp16
 70
     1
102
RTVSPropertyOp17
 70
     1
102
RTVSPropertyOp18
 70
     1
102
RTVSPropertyOp19
 70
     1
102
RTVSPropertyOp20
 70
     1
102
RTVSPropertyOp21
 70
     1
102
RTVSPropertyOp22
 70
     1
102
RTVSPropertyOp23
 70
     1
102
RTVSPropertyOp24
 70
     1
102
RTVSPropertyOp25
 70
     1
102
RTVSPropertyOp26
 70
     1
102
RTVSPropertyOp27
 70
     1
102
RTVSPropertyOp28
 70
     1
102
RTVSPropertyOp29
 70
     1
102
RTVSPropertyOp30
 70
     1
102
RTVSPropertyOp31
 70
     1
102
RTVSPropertyOp32
 70
     1
102
RTVSPropertyOp33
 70
     1
102
RTVSPropertyOp34
 70
     1
102
RTVSPropertyOp35
 70
     1
102
RTVSPropertyOp36
 70
     1
102
RTVSPropertyOp37
 70
     1
102
RTVSPropertyOp38
 70
     1
102
RTVSPropertyOp39
 70
     1
102
RTVSPropertyOp40
 70
     1
102
RTVSPropertyOp41
 70
     1
102
RTVSPropertyOp42
 70
     1
102
RTVSPropertyOp43
 70
     1
102
RTVSPropertyOp44
 70
     1
102
RTVSPropertyOp45
 70
     1
102
RTVSPropertyOp46
 70
     1
102
RTVSPropertyOp47
 70
     1
102
RTVSPropertyOp48
 70
     1
102
RTVSPropertyOp49
 70
     1
102
RTVSPropertyOp50
 70
     1
102
RTVSPropertyOp51
 70
     0
102
RTVSPropertyOp52
 70
     0
102
RTVSPropertyOp53
 70
     1
102
RTVSPropertyOp54
 70
     1
102
RTVSPropertyOp55
 70
     1
102
RTVSPropertyOp56
 70
     1
102
RTVSPropertyOp57
 70
     1
102
RTVSPropertyOp58
 70
     1
102
RTVSPropertyOp59
 70
     1
102
RTVSPropertyOp60
 70
     1
102
RTVSPropertyOp61
 70
     1
102
RTVSPropertyOp62
 70
     1
  0
XRECORD
  5
DB
102
{ACAD_REACTORS
330
DA
102
}
330
DA
100
AcDbXrecord
280
     1
1071
  6895636
1071
  9291323
 70
    25
 70
   104
 40
0.0
  0
XRECORD
  5
DC
102
{ACAD_REACTORS
330
DA
102
}
330
DA
100
AcDbXrecord
280
     1
1071
 18597260
1071
 25303744
 70
    25
 70
   104
 10
1.185834988647621
 20
0.7358094721253014
 30
0.0
 10
11.85250165531428
 20
0.7358094721253014
 30
0.0
 10
0.0
 20
0.0
 30
-1.0
  0
ENDSEC
  0
EOF
